Guitaretab - guitar tabs
Song name
# A B C D E F G H I J K L M N O P Q R S T U V W X Y Z

Sonic Youth - New Hampshire tab

-------------------------------------------------------------------------------
			     NEW HAMPSHIRE - Sonic Youth
-------------------------------------------------------------------------------
Tabbed by: Chapman Li (aka SonicYouthRules) 
Email: chapman_li@hotmail.com

Tuning: Standard

One of my favourite tracks from Sonic Nurse, there's some great guitar work
on this song.



INTRO


Riff1

e|-----------------------------------------------------------------------|
B|--------------------------------------------------10/13-13~------------|
G|--10-10--10-10--10-10~----10-10--10-10-10---10-10~---------------------|
D|-----------------------------------------------------------------------|
A|-----------------------------------------------------------------------|
E|-----------------------------------------------------------------------|

e|-----------------------------------------------------------------------|
B|--13-13-13~------------------------------------------3-----------------|
G|----------------------------------------------------5--5---------------|
D|----------------12-12-12--8-8-8-8--10-10-10--5~--5-5----5~--1~---------|
A|-----------------------------------------------------------------------|
E|-----------------------------------------------------------------------|


e|-----------------------------------------------------------------------|
B|-----------------------------------------------------------------------|
G|--5555-5/7-7-----------------------------------------------------------|
D|--3333-3/5-5-----------------------------------------------------------|
A|-----------------------------------------------------------------------|
E|-----------------------------------------------------------------------|


Riff2

e|-----------------------------------------------------------------------|
B|----------11----------13-11--13~-11--15-15--15-15--15-15-15------------|
G|--12-10------12-10---------12------12----------------------------------|
D|-------12---------(12)-------------------------------------------------|
A|-----------------------------------------------------------------------|
E|-----------------------------------------------------------------------|
[ Tab from: http://www.guitaretab.com/s/sonic-youth/161040.html ]
e|-----------------------------------------------------------------------|
B|--15-15--15---15-----15 15-------15~ etc-------------------------------|
G|-----------------------------------------------------------------------|
D|-----------------------------------------------------------------------|
A|-----------------------------------------------------------------------|
E|-----------------------------------------------------------------------|


VERSE 

e|-----------------------------------------------------------------------|
B|-----------------------------------------------------------------------|
G|--12-----------etc------------------------------15---etc---------------|
D|--10--------------------------------------------13---------------------|
A|-----------------------------------------------------------------------|
E|-----------------------------------------------------------------------|
listen to the record for strumming pattern




BRIDGE 

Riff 3 (01:57)
e|-----------------------------------------------------------------------|
B|-----------------------------------------------------------------------|
G|-----8-5~---8-5-------------------8-5~-----8-5--5~---------------------|
D|--8-5----------8-5~------------8-5-------------8-----------------------|
A|-----------------------------------------------------------------------|
E|-----------------------------------------------------------------------|


e|-----------------------------------------------------------------------|
B|-----------------------------------------------------------------------|
G|--5555555/7--777777/10-101010------------------------------------------|
D|--3333333/5--555555/8---8888-------------------------------------------|
A|-----------------------------------------------------------------------|
E|-----------------------------------------------------------------------|

repeat ONCE, then...


(02:24)

e|-----------------------------------------------------------------------|
B|-----------------------------------------------------------------------|
G|--10-10~--7-7~-----10-10--12-12~--7-7----------------------------------|
D|-----------------------------------------------------------------------|
A|-----------------------------------------------------------------------|
E|-----------------------------------------------------------------------|


back to VERSE Chords....



(03:39)
e|-----------------------------------------------------------------------|
B|------------9-8------------------------11-10---------------------------|
G|--8-8--12-8-----8----------10-10--14-10------10---etc------------------|
D|-----------------------------------------------------------------------|
A|-----------------------------------------------------------------------|
E|-----------------------------------------------------------------------|




| /  slide up
| \  slide down
| h  hammer-on
| p  pull-off
| ~  vibrato
| +  harmonic
| x  Mute note
===============================================================================
Related for New Hampshire tab