Guitaretab - guitar tabs
Song name
# A B C D E F G H I J K L M N O P Q R S T U V W X Y Z

Sonic Youth - White Cross tab

From: Winston Campbell 
Subject: WHITE CROSS by Sonic Youth


Here's an ear-catching Sonic Youth song (off of Sister) that can be played
with normal tunage.  The basic chord structure (and the intro) is:

  
  E5                            D#5                          A5

E --------------------------------------------------------------------------
B --------------------------------------------------------------------------
G -9--9--9--9-9-9-9-9-9-9-9-9-9-8--8--8--8-8-8-8-8-8-8-8-8-8----------------
D -9--9--9--9-9-9-9-9-9-9-9-9-9-8--8--8--8-8-8-8-8-8-8-8-8-8-7--7--7--7-7-7-
A -7--7--7--7-7-7-7-7-7-7-7-7-7-6--6--6--6-6-6-6-6-6-6-6-6-6-7--7--7--7-7-7-
E -----------------------------------------------------------5--5--5--5-5-5-


                                               E5  (Riff)

E --------------------------------------------------------0--------3--------
B --------------------------------------------------------------------------
G ---------------------------------------------/9---------------------------
D -7-7-7-7-7-7-7-7--7--7--7-7-7-7-7-7-7-7-7-7--/9---------------------------
A -7-7-7-7-7-7-7-7--7--7--7-7-7-7-7-7-7-7-7-7--/7---4--4-----4--4-----4--4--
E -5-5-5-5-5-5-5-5--5--5--5-5-5-5-5-5-5-5-5-5-------2--2-----2--2-----2--2--


E -0--------3---
B --------------
G --------------
D --------------
A ----4--4------
E ----2--2------



E5  D#5    A5
Bur-ning inside

 (Riff)
I cross myself, it doesnt help

            E5  D#5     A5
Because I am not smart enough

 (Riff)
Digging into hot white

E5       D#5    A5
Learning not to lie

 (Riff played twice)
We cross it out and stay away


(after this part, the sonic noise steps in for awhile then it goes back to
the intro again)


E5  D#5    A5
Bur-ning inside

   (Riff)
We cross it out and stay away


The song gets sonically noisy again with the high E-string riff playing
repeatedy.  And that is it!
[ Tab from: http://www.guitaretab.com/s/sonic-youth/17841.html ]
Related for White Cross tab
Advertisement will be closed in 10 seconds