Song name
# A B C D E F G H I J K L M N O P Q R S T U V W X Y Z

Sonic Youth - Wish Fulfillment tab

"WISH FULFILLMENT" by Sonic Youth

Like 99.9% of all Sonic Youth songs, "Wish Fulfillment" is played in
an unusual tuning. Since it's a pain to tune your guitar everytime
you wanna play a Sonic Youth song, I figured I would come up with a
version of this song in standard tuning. I used the song "Little
Jammy Thing" (it's an instrumental version off the album 'Sonic Life')
as well as the album version to help with this tab. It's not going to
sound exactly like the original, but I think it sounds pretty good.


INTRO/VERSE:

|---------2-----------------2--------------------------|
|-------------3-----------------3----------------------|
|-----0-----0---0-------0-----0---0--------------------|
|---0---0-------------0---0--------------2---4---4-2---|
|--------------------------------------2---2---2-----2-|
|-3-----------------3----------------0-----------------|

|---------2-----------------2----------------------------|
|-------------3-----------------3------------------------|
|-----0-----0---0-------0-----0---0----------------------|
|---0---0-------------0---0--------------2---4---4-4-4-4-|
|--------------------------------------2---2---2---------|
|-3-----------------3----------------0-------------------|


BRIDGE:

|----------------------------------------------|
|----------------------------------------------|
|----------------------------------------------|
|-5-5-x-x-x-5-5-x-x-x-4/2-2-2-2-2--4/2-2-2-2-2-|
|-5-5-x-x-x-5-5-x-x-x-4/2-2-2-2-2--4/2-2-2-2-2-|
|-3-3-x-x-x-3-3-x-x-x-2/0-0-0-0-0--2/0-0-0-0-0-|


CHORUS:

|-4-4-4-4-4-4-5-5-5-5-5-5--4-4-4-4-4-4-5-5-5-5-5-5-|
|-4-4-4-4-4-4-5-5-5-5-5-5--4-4-4-4-4-4-5-5-5-5-5-5-|
|-6-6-6-6-6-6-7-7-7-7-7-7--6-6-6-6-6-6-7-7-7-7-7-7-|
|-6-6-6-6-6-6-7-7-7-7-7-7--6-6-6-6-6-6-7-7-7-7-7-7-|
|-4-4-4-4-4-4-5-5-5-5-5-5--4-4-4-4-4-4-5-5-5-5-5-5-|
|-4-4-4-4-4-4-5-5-5-5-5-5--4-4-4-4-4-4-5-5-5-5-5-5-|

|-4-4-4-4-4-4-5-5-5-5-5-5-7-7-7-7-7-7-7-------------|
|-4-4-4-4-4-4-5-5-5-5-5-5-7-7-7-7-7-7-7-------------|
|-6-6-6-6-6-6-7-7-7-7-7-7-9-9-9-9-9-9-9-4-4-4-4-4-4-|
|-6-6-6-6-6-6-7-7-7-7-7-7-9-9-9-9-9-9-9-4-4-4-4-4-4-|
|-4-4-4-4-4-4-5-5-5-5-5-5-7-7-7-7-7-7-7-2-2-2-2-2-2-|
|-4-4-4-4-4-4-5-5-5-5-5-5-7-7-7-7-7-7-7-2-2-2-2-2-2-|


POST-CHORUS:

|------------------------|
|------------------------|
|------------------------|
|-11-11-11-11-11-11/13-2-|
|-11-11-11-11-11-11/13-2-|
|--9--9--9--9--9--9/11-0-|


INTRO/VERSE x 3
BRIDGE x 2
CHORUS x 2
POST-CHORUS x 1

INTRO/VERSE x 3
BRIDGE x 2
CHORUS x 2
POST-CHORUS x 1
Tap to rate this tab
# A B C D E F G H I J K L M N O P Q R S T U V W X Y Z