Guitaretab - guitar tabs
Song name
# A B C D E F G H I J K L M N O P Q R S T U V W X Y Z

Sonic Youth - Sacred Trickster tab

Sonic Youth
The Eternal
Sacred Trickster
E B E E A B
6th string the same
5th string 1 step up
4th string 1 step up
3rd string 1 1/2 steps down
2nd string 1 step down
1st string 2 1/2 steps down

I also did Malibu Gas Station, and I will try and figure out more
Eternal songs. YAY SONIC YOUTH AND SONIC FANS!

Intro:
---------------------|
-11-5-11-5-11-5-11-5-|
-11-5-11-5-11-5-11-5-|
-11-5-11-5-11-5-11-5-|
---------------------|
---------------------|

Verse:
-------------------------------------------|
-11-11-11-11-11-11-11-11-------------------|
-11-11-11-11-11-11-11-11-10-10-10-12-10-10-|
-11-11-11-11-11-11-11-11-10-10-10-12-10-10-|  x4
-------------------------10-10-10-10-10-10-|
-------------------------10-10-10-10-10-10-|

Chorus
-----------------|
-----------------|
-777777773330000-
-777777773330000-
-777777773330000- x2
-777777773330000-
[ Tab from: http://www.guitaretab.com/s/sonic-youth/190164.html ]
--------------------------10-10-10-------------------------12-10-10-10-|
---------------------------10-10-------------------------------10-10---|
-10-10-10-10-10-10-10-10-10--------10-10-10-10-10-10-10-10-------------|
-10-10-10-10-10-10-10-10-----------10-10-10-10-10-10-10-10-------------|
-10-10-10-10-10-10-10-10-----------10-10-10-10-10-10-10-10-------------|
-10-10-10-10-10-10-10-10-----------10-10-10-10-10-10-10-10-------------|

Bridge:
----------------------------|
----------------------------|
-10-10-x-10-10-10-xxxxxxxxx-|
-10-10-x-10-10-10-xxxxxxxxx-|
-10-10-x-10-10-10-xxxxxxxxx-|
-10-10-x-10-10-10-xxxxxxxxx-|

Intro
Verse
Chorus
Verse
Chorus
Bridge
Intro
Verse
Chorus

I want you to levitate me
Don't you love me yet?
Pressed up against the amp
Turn up the treble, don't forget

Gettin dizzy, sittin around
Sacred trickster in another tight sound

I wish I could be music on a tree
Noise Nomads and me
Levitating on the ground

Uh uh

What's it like to be a girl in a band?
I don't quite understand
That's so quaint to hear
I feel so faint my dear

DOING NOTHING, SITTIN AROUND!
SACRED TRICKSTER IN ANOTHER TIGHT SOUND!

I wish I could be music on a tree
Noise Nomads and me
Levitating, spinnin around.

THE 'SONIC' END
Related for Sacred Trickster tab