Song name
# A B C D E F G H I J K L M N O P Q R S T U V W X Y Z

Sonic Youth - Massage The History tab

Sonic Youth/The Eternal/Massage The History
D A D D F D
6th string is 1 step down
5th string is same
4th string is same
3rd string is 2 1/2 steps down
2nd string is 3 steps down
1st string is 1 step down

Improv. notes for, well, improv!:
-0-2-3-5-7-8-10-12-14-15-17-19-20-22-24-|
-0-0-0-0-0-0-0--0--0--0--0--0--0--0--0--|
-0-0-0-0-0-0-0--0--0--0--0--0--0--0--0--|
-0-0-0-0-0-0-0--0--0--0--0--0--0--0--0--|
-0-0-0-0-0-0-0--0--0--0--0--0--0--0--0--|
-0-0-0-0-0-0-0--0--0--0--0--0--0--0--0--|

Part 1: Acoustic
-0-3-3-0-5-3-0-0-0-0-0-3-3-0-5-3-0-0-0-0-7-7-----7-7---|
-0-0-0-0-0-0-0-0-0-0-0-0-0-0-0-0-0-0-0-0-7--7---7---7--|
-0-0-0-0-0-0-0-0-0-0-0-0-0-0-0-0-0-0-0-0-7---7-7-----7-|
-0-0-0-0-0-0-0-0-0-0-0-0-0-0-0-0-0-0-0-0-7---7-7-------|
-0-0-0-0-0-0-0-0-0-0-0-0-0-0-0-0-0-0-0-0-7-------------|
-0-0-0-0-0-0-0-0-0-0-0-0-0-0-0-0-0-0-0-0-7-------------|
This goes on and on... but not in a bad way,
cuz its really dreamy...
I think some acoustic improv. is also added in sometimes

Part 2: Electric                                              Repeat
-----               -----------------------------------0--0--0--0---|
-----               -----------------------------------0--0--0--0---|
---0-               -888888888888888833333333333333330--0--0--0--0--|
---0- Repeat until: -888888888888888833333333333333330--0--0--0--0--|
--0--               -888888888888888833333333333333330---0--0--0--0-|
-0---               -888888888888888833333333333333330---0--0--0--0-|

Some improv. and then:
-5-0-5-0-5-0-5-0-5-0-5-0-5-0-5-0-7-0-7-0-7-0-7-0-7-0-7-0-7-0-7-0-|
-----------------------------------------------------------------|
-----------------------------------------------------------------|
-----------------------------------------------------------------|
-----------------------------------------------------------------|
-----------------------------------------------------------------|

Do some low noises until it fades to drums

Part 3:
The same continuous beginning riff with some improv.
It eventually lead into:
-----------------------------------------------------------------|
-----------------------------------------------------------------|
-----------------------------------------------------------------|
-----------------------------------------------------------------|
-----------------------------------------------------------------|
-0-0-0-0-0-0-0-0-0-0-0-0-0-0-0-0-7-7-7-7-7-7-7-7-7-7-7-7-7-7-7-7-|

End on:
---
---
---
---
---
-0-

That's it. ummm... bye.
Tap to rate this tab
 
# A B C D E F G H I J K L M N O P Q R S T U V W X Y Z