Song name
# A B C D E F G H I J K L M N O P Q R S T U V W X Y Z

Sonic Youth - Leaky Lifeboat For Gregory Corso tab

Sonic Youth/Leaky Lifeboat (for Gregory Corso)/The Eternal
E G D G E D
6th string the same
5th string 1 step down
4th string the same
3rd string the same
2nd string 3 1/2 steps down
1st string 1 step down

Intro/Outro:
harmonics
---7-----|
-----5-5-|
--7------|
-7----5--|
---------|
---------|

Verse:
----------------7-|
------------------|
-4-4-4-4-4-4---7--|
--------------7---|
-4-4-4-4-4-4-7----|
------------------|

Chorus 1:
---------------------------------------------------7777777777777777-|
--------------------------------------------------------------------|
-4444444422222222-9-7-9-7-7-9-7-9-4444444422222222------------------|
-4444444422222222-----------------4444444422222222-7777777777777777-|
-4444444422222222-9-7-9-7-7-9-7-9-4444444422222222------------------|
--------------------------------------------------------------------|

Chorus 2:
---------------------------------------------------7777777777777777-|
--------------------------------------------------------------------|
-4444444422222222-9-7-9-7-7-9-7-9-4444444422222222------------------|
-4444444422222222-----------------4444444422222222-7777777777777777-|
-4444444422222222-9-7-9-7-7-9-7-9-4444444422222222------------------|
--------------------------------------------------------------------|

-10-10-10-10-10-10-10-10-10-10-10-10-10-10-10-10-7-5-7-8-5-5-7-7-|
-----------------------------------------------------------------|
-----------------------------------------------------------------|
-10-10-10-10-10-10-10-10-10-10-10-10-10-10-10-10-7-5-7-8-5-5-7-7-|
-----------------------------------------------------------------|
-----------------------------------------------------------------|

-7-5-7-8-5-5-7-7-7-5-7-8-5-5-7-7-7-5-7-8-5-5-7-7-|
-------------------------------------------------|
-------------------------------------------------|
-7-5-7-8-5-5-7-7-7-5-7-8-5-5-7-7-7-5-7-8-5-5-7-7-|
-------------------------------------------------|
-------------------------------------------------|

Lala's!:
-------------------------------------|
-------------------------------------|
-11-11-11-11-9-11-11-11-11-11-9-11-4-|
-------------------------------------|
-11-11-11-11-9-11-11-11-11-11-9-11-4-|
-------------------------------------|

Before-drum-line note:
---
---
---
-0-
---
---

Chorus 3:
---------------------------------------------------7777777777777777-|
--------------------------------------------------------------------|
-4444444422222222-9-7-9-7-7-9-7-9-4444444422222222------------------|
-4444444422222222-----------------4444444422222222-7777777777777777-|
-4444444422222222-9-7-9-7-7-9-7-9-4444444422222222------------------|
--------------------------------------------------------------------|

-10-10-10-10-10-10-10-10-10-10-10-10-10-10-10-10-7-5-7-8-5-5-7-7-|
-----------------------------------------------------------------|
-----------------------------------------------------------------|
-10-10-10-10-10-10-10-10-10-10-10-10-10-10-10-10-7-5-7-8-5-5-7-7-|
-----------------------------------------------------------------|
-----------------------------------------------------------------|

-7-5-7-8-5-5-7-7-|
-----------------|
-----------------|
-7-5-7-8-5-5-7-7-|
-----------------|
-----------------|

-20-20-20-20-20-19-17-19-15-14-|
-------------------------------|
-------------------------------|
-------------------------------|   x4
-------------------------------|
-------------------------------|

---------------14-17b-17b-17b-17b-|
-14-14-14-14-14-------------------|
----------------------------------|
----------------------------------|
----------------------------------|
----------------------------------|

Lala's! 2:
Same thing as the 1st la's, or you can improv.
in the key of D maj., I would suggest using
the octaves on the 5th and 3rd string.

Order:
Intro x4
Verse x6
Chorus 1
Verse x4
Chorus 2
Lala's! x2
Before-drum-line note
Verse x6
Chorus 3
Lala's!2
Outro x8

That's it now get lost!
Tap to rate this tab
# A B C D E F G H I J K L M N O P Q R S T U V W X Y Z