Song name
# A B C D E F G H I J K L M N O P Q R S T U V W X Y Z

Sonic Youth - Theresas Sound World tab

Song: Theresa's Sound World
Band: Sonic Youth
Album: Dirty 
Tabbed by: Indie Nation




Intro:

e|-----------------|-----------------|
B|-------1-------1-|-------1---------|
G|---0-------3-----|---3-------3---0-|
D|-----------------|-------------1---|   (x8)
A|-3---3---3---3---|-3---3---3-------|
E|-----------------|-----------------|


e|-----------------|-----------------|-----------------|-----------------|
B|-------4-------4-|-------6-------6-|-------1-------1-|-------1-------1-|
G|-----------------|-----------------|-----------------|-----------------|
D|---6-------6-----|---8-------8-----|---3-------3-----|---3-------3-----| (x2)
A|-6---6---6---6---|-8---8---8---8---|-3---3---3---3---|-3---3---3---3---|
E|-----------------|-----------------|-----------------|-----------------|


Verse 1:

 Light girl come walkin thru the corn, free
e|-----------------|-----------------|-----------------|-----------------|
B|-------4-------4-|-------6-------6-|-------1-------1-|-------1-------1-|
G|-----------------|-----------------|-----------------|-----------------|
D|---6-------6-----|---8-------8-----|---3-------3-----|---3-------3-----|
A|-6---6---6---6---|-8---8---8---8---|-3---3---3---3---|-3---3---3---3---|
E|-----------------|-----------------|-----------------|-----------------| 

  Light blue vibration thru the sea 
e|-----------------|-----------------|-----------------|-----------------|
B|-------4-------4-|-------6-------6-|-------1-------1-|-------1-------1-|
G|-----------------|-----------------|-----------------|-----------------|
D|---6-------6-----|---8-------8-----|---3-------3-----|---3-------3-----|
A|-6---6---6---6---|-8---8---8---8---|-3---3---3---3---|-3---3---3---3---|
E|-----------------|-----------------|-----------------|-----------------|

  I know I'd love her to breathe, again 
e|-----------------|-----------------|-----------------|-----------------|
B|-------4-------4-|-------6-------6-|-------1-------1-|-------1-------1-|
G|-----------------|-----------------|-----------------|-----------------|
D|---6-------6-----|---8-------8-----|---3-------3-----|---3-------3-----|
A|-6---6---6---6---|-8---8---8---8---|-3---3---3---3---|-3---3---3---3---|
E|-----------------|-----------------|-----------------|-----------------|

  Light cubes are talkin her down 
e|-----------------|-----------------|-----------------|-----------------|
B|-------4-------4-|-------6-------6-|-------1-------1-|-------1-------1-|
G|-----------------|-----------------|-----------------|-----------------|
D|---6-------6-----|---8-------8-----|---3-------3-----|---3-------3-----|
A|-6---6---6---6---|-8---8---8---8---|-3---3---3---3---|-3---3---3---3---|
E|-----------------|-----------------|-----------------|-----------------|



Pre-chorus:

  I've been a wasted day, light spinning round a saint
e|------|------|-------|-------|------|------|------|------|
B|-4----|-6----|--8----|--8----|-4----|-6----|-1----|-1----|
G|-0----|-0----|--0----|--0----|-0----|-0----|-0----|-0----|
D|-6----|-8----|-10----|-10----|-6----|-8----|-3----|-3----|
A|-6----|-8----|-10----|-10----|-6----|-8----|-3----|-3----|
E|------|------|-------|-------|------|------|------|------|
   
  Light colored wild sign, Theresa's talking the rain 
e|------|------|-------|-------|------|------|------|------|
B|-4----|-6----|--8----|--8----|-4----|-6----|-1----|-1----|
G|-0----|-0----|--0----|--0----|-0----|-0----|-0----|-0----|
D|-6----|-8----|-10----|-10----|-6----|-8----|-3----|-3----|
A|-6----|-8----|-10----|-10----|-6----|-8----|-3----|-3----|
E|------|------|-------|-------|------|------|------|------|


Chorus:

e|-----------------|-5-5b-3-5b-3~----|
B|-----------------|-----------------|
G|-----------------|-----------------|
D|-----------------|-----------------|
A|-----------------|-----------------|
E|-----------------|-----------------|
 |                                   | (x2)
e|-----------------|-----------------|
B|-----------------|-----------------|
G|-5-5-5-5-5-5-5-5-|-5-5-5-5-5-5-5-5-|
D|-5-5-5-5-5-5-5-5-|-5-5-5-5-5-5-5-5-|
A|-3-3-3-3-3-3-3-3-|-3-3-3-3-3-3-3-3-|
E|-----------------|-----------------|


e|-------|-------|-------|-------|-------|-------|-------|-------|-------|-------|
B|-------|-------|-------|-------|-------|-------|-------|-------|-------|-------|
G|12-----|12-----|10-----|10-----|12-----|12-----|15-----|15-----|17-----|17-----|
D|---(x8)|---(x8)|---(x8)|---(x8)|---(x8)|---(x8)|---(x8)|---(x8)|---(x8)|---(x8)|
A|10-----|10-----|-8-----|-8-----|10-----|10-----|13-----|13-----|15-----|15-----|
E|-------|-------|-------|-------|-------|-------|-------|-------|-------|-------|

e|-------|-------|-------|-------|-------|-------|-------|-------|
B|-------|-------|-------|-------|-------|-------|-------|-------|
G|20-----|20-----|22-----|22-----|24-----|24-----|24-----|24-----|
D|---(x8)|---(x8)|---(x8)|---(x8)|---(x8)|---(x8)|---(x8)|---(x8)|
A|18-----|18-----|20-----|20-----|22-----|22-----|22-----|22-----|
E|-------|-------|-------|-------|-------|-------|-------|-------|


e|-----------------|-----------------|
B|-------1-------1-|-------1---------|
G|---0-------3-----|---3-------3---0-|
D|-----------------|-------------1---|   (x8)
A|-3---3---3---3---|-3---3---3-------|
E|-----------------|-----------------|

e|-----------------|-----------------|-----------------|-----------------|
B|-------4-------4-|-------6-------6-|-------1-------1-|-------1-------1-|
G|-----------------|-----------------|-----------------|-----------------|
D|---6-------6-----|---8-------8-----|---3-------3-----|---3-------3-----| (x2)
A|-6---6---6---6---|-8---8---8---8---|-3---3---3---3---|-3---3---3---3---|
E|-----------------|-----------------|-----------------|-----------------|


Verse 2 

  Light girl be glowin thru town 
e|-----------------|-----------------|-----------------|-----------------|
B|-------4-------4-|-------6-------6-|-------1-------1-|-------1-------1-|
G|-----------------|-----------------|-----------------|-----------------|
D|---6-------6-----|---8-------8-----|---3-------3-----|---3-------3-----|
A|-6---6---6---6---|-8---8---8---8---|-3---3---3---3---|-3---3---3---3---|
E|-----------------|-----------------|-----------------|-----------------|

  Windows are thoughts in disdain 
e|-----------------|-----------------|-----------------|-----------------|
B|-------4-------4-|-------6-------6-|-------1-------1-|-------1-------1-|
G|-----------------|-----------------|-----------------|-----------------|
D|---6-------6-----|---8-------8-----|---3-------3-----|---3-------3-----|
A|-6---6---6---6---|-8---8---8---8---|-3---3---3---3---|-3---3---3---3---|
E|-----------------|-----------------|-----------------|-----------------|

  I know I'd love her to stay 
e|-----------------|-----------------|-----------------|-----------------|
B|-------4-------4-|-------6-------6-|-------1-------1-|-------1-------1-|
G|-----------------|-----------------|-----------------|-----------------|
D|---6-------6-----|---8-------8-----|---3-------3-----|---3-------3-----|
A|-6---6---6---6---|-8---8---8---8---|-3---3---3---3---|-3---3---3---3---|
E|-----------------|-----------------|-----------------|-----------------|

  Whispering signs are agreeing 
e|-----------------|-----------------|-----------------|-----------------|
B|-------4-------4-|-------6-------6-|-------1-------1-|-------1-------1-|
G|-----------------|-----------------|-----------------|-----------------|
D|---6-------6-----|---8-------8-----|---3-------3-----|---3-------3-----|
A|-6---6---6---6---|-8---8---8---8---|-3---3---3---3---|-3---3---3---3---|
E|-----------------|-----------------|-----------------|-----------------|


Pre-chorus:

 Light talking gold in the rain 
e|------|------|-------|-------|------|------|------|------|
B|-4----|-6----|--8----|--8----|-4----|-6----|-1----|-1----|
G|-0----|-0----|--0----|--0----|-0----|-0----|-0----|-0----|
D|-6----|-8----|-10----|-10----|-6----|-8----|-3----|-3----|
A|-6----|-8----|-10----|-10----|-6----|-8----|-3----|-3----|
E|------|------|-------|-------|------|------|------|------|

  Lights vibing dark in the saint 
e|------|------|-------|-------|------|------|------|------|
B|-4----|-6----|--8----|--8----|-4----|-6----|-1----|-1----|
G|-0----|-0----|--0----|--0----|-0----|-0----|-0----|-0----|
D|-6----|-8----|-10----|-10----|-6----|-8----|-3----|-3----|
A|-6----|-8----|-10----|-10----|-6----|-8----|-3----|-3----|
E|------|------|-------|-------|------|------|------|------|

  A cat in gold goes alone 
e|------|------|-------|-------|------|------|------|------|
B|-4----|-6----|--8----|--8----|-4----|-6----|-1----|-1----|
G|-0----|-0----|--0----|--0----|-0----|-0----|-0----|-0----|
D|-6----|-8----|-10----|-10----|-6----|-8----|-3----|-3----|
A|-6----|-8----|-10----|-10----|-6----|-8----|-3----|-3----|
E|------|------|-------|-------|------|------|------|------|

  Theresa's sound for the king
e|------|------|-------|-------|------|------|------|------|
B|-4----|-6----|--8----|--8----|-4----|-6----|-1----|-1----|
G|-0----|-0----|--0----|--0----|-0----|-0----|-0----|-0----|
D|-6----|-8----|-10----|-10----|-6----|-8----|-3----|-3----|
A|-6----|-8----|-10----|-10----|-6----|-8----|-3----|-3----|
E|------|------|-------|-------|------|------|------|------|

Chorus:

e|-----------------|-5-5b-3-5b-3~----|
B|-----------------|-----------------|
G|-----------------|-----------------|
D|-----------------|-----------------|
A|-----------------|-----------------|
E|-----------------|-----------------|
 |                                   | (x2)
e|-----------------|-----------------|
B|-----------------|-----------------|
G|-5-5-5-5-5-5-5-5-|-5-5-5-5-5-5-5-5-|
D|-5-5-5-5-5-5-5-5-|-5-5-5-5-5-5-5-5-|
A|-3-3-3-3-3-3-3-3-|-3-3-3-3-3-3-3-3-|
E|-----------------|-----------------|


e|-------|-------|-------|-------|-------|-------|-------|-------|-------|-------|
B|-------|-------|-------|-------|-------|-------|-------|-------|-------|-------|
G|12-----|12-----|10-----|10-----|12-----|12-----|15-----|15-----|17-----|17-----|
D|---(x8)|---(x8)|---(x8)|---(x8)|---(x8)|---(x8)|---(x8)|---(x8)|---(x8)|---(x8)|
A|10-----|10-----|-8-----|-8-----|10-----|10-----|13-----|13-----|15-----|15-----|
E|-------|-------|-------|-------|-------|-------|-------|-------|-------|-------|

e|-------|-------|-------|-------|-------|-------|-------|-------|
B|-------|-------|-------|-------|-------|-------|-------|-------|
G|20-----|20-----|22-----|22-----|24-----|24-----|24-----|24-----|
D|---(x8)|---(x8)|---(x8)|---(x8)|---(x8)|---(x8)|---(x8)|---(x8)|
A|18-----|18-----|20-----|20-----|22-----|22-----|22-----|22-----|
E|-------|-------|-------|-------|-------|-------|-------|-------|


e|-----------------|-----------------|
B|-------1-------1-|-------1---------|
G|---0-------3-----|---3-------3---0-|
D|-----------------|-------------1---|   (x8)
A|-3---3---3---3---|-3---3---3-------|
E|-----------------|-----------------|

e|-----------------|-----------------|-----------------|-----------------|
B|-------4-------4-|-------6-------6-|-------1-------1-|-------1-------1-|
G|-----------------|-----------------|-----------------|-----------------|
D|---6-------6-----|---8-------8-----|---3-------3-----|---3-------3-----| (x2)
A|-6---6---6---6---|-8---8---8---8---|-3---3---3---3---|-3---3---3---3---|
E|-----------------|-----------------|-----------------|-----------------|
Tap to rate this tab
# A B C D E F G H I J K L M N O P Q R S T U V W X Y Z