Song name
# A B C D E F G H I J K L M N O P Q R S T U V W X Y Z

Sonic Youth - What We Know tab

Sonic Youth/The Eternal/What We Know
C C E G G C
6th string is 2 steps down
5th string is 1 1/2 steps up
4th string is 1 step up
3rd string is the same
2nd string is 2 steps down
1st string is 2 steps down

Intro: Bass first                                               x2
-----------------(harmonics)-----  -------------------------------|
-00000000000000005555555555555555  -------------------------------|
-00000000000000005555555555555555  -------------------------------|
---------------------------------  -------------------------------|
---------------------------------  -7-0-7-0-10-12-3-3-3-3-5-5-5-5-|
---------------------------------  -7-0-7-0-10-12-3-3-3-3-5-5-5-5-|

Verse:                                                         x2
-----------------------------------------------------------------|
---------------15-15-15-17-17-17---------------15-15-15-14-14-14-|
---------------15-15-15-17-17-17---------------15-15-15-14-14-14-|
-----------------------------------------------------------------|
-7-0-7-0-10-12-------------------7-0-7-0-10-12-------------------|
-7-0-7-0-10-12-------------------7-0-7-0-10-12-------------------|

Chorus:
-------------------|
----5-3-5-8-5-3-17-|
----5-3-5-8-5-3-17-|
-------------------|
-12----------------|
-12----------------|

-------10---------9----------12----10-10slide22-------10----|
---10---10-----9---9-----12---12---10-------------10---10---|
---10---10-----9---9-----12---12---10-------------10---10---|
--10-10--10---9-9---9---12-12--12--10------------10-10--10--|
-10-------10-9-------9-12-------12-10-----------10-------10-|
------------------------------------------------------------|

-----9----|
---9--9---|
---9--9---|
--9-9--9--|
-9------9-|
----------|

Bridge 1:
-7-7-7-7-7-7-3-5-|
-7-7-7-7-7-7-3-5-|
-7-7-7-7-7-7-3-5-|
-----------------|
-----------------|
-----------------|

Bridge 2:
-7-7-7-7-7-7-3-5-7-7-7-7-7-7-12-10-|
-7-7-7-7-7-7-3-5-7-7-7-7-7-7-12-10-|
-7-7-7-7-7-7-3-5-7-7-7-7-7-7-12-10-|
-----------------------------------|
-----------------------------------|
-----------------------------------|

Noise Attack:
1stly: (over and over)
-19-19-19-17-|
-19-19-19-17-|
-19-19-19-17-|
-------------|
-------------|
-------------|

2nd part is super creative. One guitar, (Thurston or Lee, who
really knows), is improvising pretty little notes in the key of
Bb maj... while the other guitar is BRUTAL NOISE! AIIIEEEEHHHHH!

3rdly:             (harmonics)
-------------------333333333333333333-|
-------------------333333333333333333-|
-------------------333333333333333333-|   Fades to drums
-------------------333333333333333333-|
-0-pick-scratch!-0-333333333333333333-|
-0-pick-scratch!-0-333333333333333333-|

Order:
Intro
Verse
Chorus
Bridge 1
Verse
Chorus
Bridge 2
Noise Attack
Intro
Verse
Chorus
Bridge 2
Bridge 2

Well that's what I know...
Tap to rate this tab
# A B C D E F G H I J K L M N O P Q R S T U V W X Y Z