Song name
# A B C D E F G H I J K L M N O P Q R S T U V W X Y Z

Sonic Youth - Total Trash tab

Total Trash by Sonic Youth
Drop D tuning

e------------------------------|
B------------------------------|
G------------------------------|
D------------------------------|
A-5-5-7-5-7-9-5-5-7-5-7-9-9-9--|
D-5-5-5-5-5-5-5-5-5-5-5-5-5-5--|

e------------------------|
B------------------------|
G------------------------|
D-7----------------------|
A-7-9-7-9-7-5-7-7-7-7^-5-|
D-7-7-7-7-7-5-5-5-5-5--5-|

e----------------------------------------|
B----------------------------------------|
G----------------------------------------|
D----------------------------------------|
A-10-10-12-10-12-14-10-10-12-10-12-14-10-|
D-10-10-10-10-10-10-10-10-10-10-10-10-12-|


e-------------------------------------|
B-------------------------------------|
G-------------------------------------|
D-------------------------------------|
A-10-10-12-10-12-14-10-10-14-12-10-10-|
D-10-10-10-10-10-10-10-10-10-10-10-12-|

e---------------------------------|
B---------------------------------|
G---------------------------------|
D---------------------------------|
A-12-12-12-12-12-12-12-12-12-10^--|
D-12-12-12-12-12-12-12-12-12------|


e--------------|
B-4-4-6-4-6-8--|
G-7-7-9-7-9-11-|
D--------------|
A--------------|
D--------------|
Tap to rate this tab
 
# A B C D E F G H I J K L M N O P Q R S T U V W X Y Z