Song name
# A B C D E F G H I J K L M N O P Q R S T U V W X Y Z

Sonic Youth - Purr tab

Song: Purr
Band: Sonic Youth
Album: Dirty
Tabbed By: Indie Nation


Guitar 1 - EGDGED 
Guitar 2 - EEBBEF#  


INTRO
   Gtr 1
D |--------------------------------|--------------------------------|
E |--------------------------------|--------------------------------|
G |0---0---3---0---3---0---3---0---|3---6---6b``7```````7```7``r6~~~|
D |0---0---0---0---0---0---0---0---|0---0---0---0-------0---0---0---|
G |0---0---0---0---0---0---0---0---|0---0---0---0-------0---0---0---|
E |--------------------------------|--------------------------------|
  |
  |Gtr 2
F#|--------------------------------|--------------------------------|
E |--------------------------------|--------------------------------|
B |--------------------------------|--------------------------------|
B |--------------------------------|--------------------------------|
E |--------------------------------|--------------------------------|
E |--------------------------------|--------------------------------|


   Gtr 1
D |--------5-5-5-5-5---5---5---5-5-|6---5-------3-------3---5-------|
E |--------x-x-x-x-x---x---x---x-x-|x---x-------x-------x---x-------|
G |--------5-5-5-5-5---5---5---5-5-|6---5-------3-------3---5-------|
D |--------------------------------|x---x-------x-------x---x-------|
G |--------------------------------|6---5-------3-------3---5-------|
E |5---5---------------------------|--------------------------------|
  |
  |Gtr 2
F#|--------------------------------|--------------------------------|
E |--------------------------------|--------------------------------|
B |--------------------------------|------------------------3/------|
B |--------------------------------|--------------------------------|
E |--------------------------------|--------------------------------|
E |--------------------------------|--------------------------------|





1ST VERSE: repeat x3
   Gtr 1
D |--------------------------------|--------------------------------|
E |--------------------------------|--------------------------------|
G |0---0---3---0---3---0---3---0---|3---6---6b``7```````7```7``r6~~~|
D |0---0---0---0---0---0---0---0---|0---0---0---0-------0---0---0---|
G |0---0---0---0---0---0---0---0---|0---0---0---0-------0---0---0---|
E |--------------------------------|--------------------------------|
  |
  |Gtr 2
F#|--------------------------------|--------------------------------|
E |--------------------------------|--------------------------------|
B |8~~-----11------11--8-------8---|11--13------14b`````15`````r14--|
B |--------------------------------|--------------------------------|
E |--------------------------------|--------------------------------|
E |--------------------------------|--------------------------------|


   Gtr 1
D |--------5-5-5-5-5---5---5---5-5-|6---5-------3-------3---5-------|
E |--------x-x-x-x-x---x---x---x-x-|x---x-------x-------x---x-------|
G |--------5-5-5-5-5---5---5---5-5-|6---5-------3-------3---5-------|
D |--------------------------------|x---x-------x-------x---x-------|
G |--------------------------------|6---5-------3-------3---5-------|
E |5---5---------------------------|--------------------------------|
  |
  |Gtr 2
F#|--------------------------------|--------------------------------|
E |--------------------------------|--------------------------------|
B |10~~~~~~~~~~~~~~~~~~~~~~-------/|14--13------11----------13------|
B |--------------------------------|--------------------------------|
E |--------------------------------|--------------------------------|
E |--------------------------------|--------------------------------|





CHORUS RIFF I
   Gtr 1
D |3---3---3---3---3---3---3---3---|3---3---3---3---3---3---3---3---|
E |1---1---1---1---1---1---1---1---|1---1---1---1---1---1---1---1---|
G |3---3---3---3---3---3---3---3---|3---3---3---3---3---3---3---3---|
D |x---x---x---x---x---x---x---x---|x---x---x---x---x---x---x---x---|
G |x---x---x---x---x---x---x---x---|x---x---x---x---x---x---x---x---|
E |3---3---3---3---3---3---3---3---|3---3---3---3---3---3---3---3---|
  |
  |Gtr 2
F#|------------<3>-<3>-<3>-<3>-----|------------<3>-<3>-<3>-<3>-<3>-|
E |------------<3>-<3>-<3>-<3>-----|------------<3>-<3>-<3>-<3>-<3>-|
B |3-------3---<3>-<3>-<3>-<3>-3---|----3---3---<3>-<3>-<3>-<3>-<3>-|
B |3-------3-------------------3---|----3---3-----------------------|
E |3-------3-------------------3---|----3---3-----------------------|
E |3-------3-------------------3---|----3---3-----------------------|


   Gtr 1
D |5---5---5---5---5---5---5---5---|5---5---5---5---5---5---5---5---|
E |3---3---3---3---3---3---3---3---|3---3---3---3---3---3---3---3---|
G |5---5---5---5---5---5---5---5---|5---5---5---5---5---5---5---5---|
D |x---x---x---x---x---x---x---x---|x---x---x---x---x---x---x---x---|
G |x---x---x---x---x---x---x---x---|x---x---x---x---x---x---x---x---|
E |5---5---5---5---5---5---5---5---|5---5---5---5---5---5---5---5---|
  |
  |Gtr 2
F#|------------<5>-<5>-<5>-<5>-----|------------<5>-<5>-<5>-<5>-<5>-|
E |------------<5>-<5>-<5>-<5>-----|------------<5>-<5>-<5>-<5>-<5>-|
B |5-------5---<5>-<5>-<5>-<5>-5---|----5---5---<5>-<5>-<5>-<5>-<5>-|
B |5-------5-------------------5---|----5---5-----------------------|
E |5-------5-------------------5---|----5---5-----------------------|
E |5-------5-------------------5---|----5---5-----------------------|


   Gtr 1
D |3---3---3---3---3---3---3---3---|3---3---3---3---3---3---3---3---|
E |1---1---1---1---1---1---1---1---|1---1---1---1---1---1---1---1---|
G |3---3---3---3---3---3---3---3---|3---3---3---3---3---3---3---3---|
D |x---x---x---x---x---x---x---x---|x---x---x---x---x---x---x---x---|
G |x---x---x---x---x---x---x---x---|x---x---x---x---x---x---x---x---|
E |3---3---3---3---3---3---3---3---|3---3---3---3---3---3---3---3---|
  |
  |Gtr 2
F#|------------<3>-<3>-<3>-<3>-----|------------<3>-<3>-<3>-<3>-<3>-|
E |------------<3>-<3>-<3>-<3>-----|------------<3>-<3>-<3>-<3>-<3>-|
B |3-------3---<3>-<3>-<3>-<3>-3---|----3---3---<3>-<3>-<3>-<3>-<3>-|
B |3-------3-------------------3---|----3---3-----------------------|
E |3-------3-------------------3---|----3---3-----------------------|
E |3-------3-------------------3---|----3---3-----------------------|


   Gtr 1
D |5---5---5---5---5---5---5---5---|5---5---5---5---5---5---5---5---|
E |3---3---3---3---3---3---3---3---|3---3---3---3---3---3---3---3---|
G |5---5---5---5---5---5---5---5---|5---5---5---5---5---5---5---5---|
D |x---x---x---x---x---x---x---x---|x---x---x---x---x---x---x---x---|
G |x---x---x---x---x---x---x---x---|x---x---x---x---x---x---x---x---|
E |5---5---5---5---5---5---5---5---|5---5---5---5---5---5---5---5---|
  |
  |Gtr 2
F#|------------<5>-<5>-<5>-<5>-----|------------<5>-<5>-<5>-<5>-<5>-|
E |------------<5>-<5>-<5>-<5>-----|------------<5>-<5>-<5>-<5>-<5>-|
B |5-------5---<5>-<5>-<5>-<5>-5---|----5---5---<5>-<5>-<5>-<5>-<5>-|
B |5-------5-------------------5---|----5---5-----------------------|
E |5-------5-------------------5---|----5---5-----------------------|
E |5-------5-------------------5---|----5---5-----------------------|


   Gtr 1
D |--------------------------------|--------------------------------|
E |--------------------------------|--------------------------------|
G |3---3---3---3---3---3---3---3---|3---3---3---3---3---3---3---3---|
D |x---x---x---x---x---x---x---x---|x---x---x---x---x---x---x---x---|
G |x---x---x---x---x---x---x---x---|x---x---x---x---x---x---x---x---|
E |3---3---3---3---3---3---3---3---|3---3---3---3---3---3---3---3---|
  |
  |Gtr 2
F#|------------<3>-<3>-<3>-<3>-----|------------<3>-<3>-<3>-<3>-<3>-|
E |------------<3>-<3>-<3>-<3>-----|------------<3>-<3>-<3>-<3>-<3>-|
B |3-------3---<3>-<3>-<3>-<3>-3---|----3---3---<3>-<3>-<3>-<3>-<3>-|
B |3-------3-------------------3---|----3---3-----------------------|
E |3-------3-------------------3---|----3---3-----------------------|
E |3-------3-------------------3---|----3---3-----------------------|


   Gtr 1
D |--------------------------------|--------------------------------|
E |--------------------------------|--------------------------------|
G |5---5---5---5---5---5---5---5---|5---5---5---5---5---5---5---5---|
D |x---x---x---x---x---x---x---x---|x---x---x---x---x---x---x---x---|
G |x---x---x---x---x---x---x---x---|x---x---x---x---x---x---x---x---|
E |5---5---5---5---5---5---5---5---|5---5---5---5---5---5---5---5---|
  |
  |Gtr 2
F#|------------<5>-<5>-<5>-<5>-----|------------<5>-<5>-<5>-<5>-<5>-|
E |------------<5>-<5>-<5>-<5>-----|------------<5>-<5>-<5>-<5>-<5>-|
B |5-------5---<5>-<5>-<5>-<5>-5---|----5---5---<5>-<5>-<5>-<5>-<5>-|
B |5-------5-------------------5---|----5---5-----------------------|
E |5-------5-------------------5---|----5---5-----------------------|
E |5-------5-------------------5---|----5---5-----------------------|


   Gtr 1
D |--------------------------------|--------------------------------|
E |--------------------------------|--------------------------------|
G |3---3---3---3---3---3---3---3---|3---3---3---3---3---3---3---3---|
D |x---x---x---x---x---x---x---x---|x---x---x---x---x---x---x---x---|
G |x---x---x---x---x---x---x---x---|x---x---x---x---x---x---x---x---|
E |3---3---3---3---3---3---3---3---|3---3---3---3---3---3---3---3---|
  |
  |Gtr 2
F#|------------<3>-<3>-<3>-<3>-----|------------<3>-<3>-<3>-<3>-<3>-|
E |------------<3>-<3>-<3>-<3>-----|------------<3>-<3>-<3>-<3>-<3>-|
B |3-------3---<3>-<3>-<3>-<3>-3---|----3---3---<3>-<3>-<3>-<3>-<3>-|
B |3-------3-------------------3---|----3---3-----------------------|
E |3-------3-------------------3---|----3---3-----------------------|
E |3-------3-------------------3---|----3---3-----------------------|


   Gtr 1
D |--------------------------------|--------------------------------|
E |--------------------------------|--------------------------------|
G |5---5---5---5---5---5---5---5---|5---5---5---5---5---5---5---5---|
D |x---x---x---x---x---x---x---x---|x---x---x---x---x---x---x---x---|
G |x---x---x---x---x---x---x---x---|x---x---x---x---x---x---x---x---|
E |5---5---5---5---5---5---5---5---|5---5---5---5---5---5---5---5---|
  |
  |Gtr 2
F#|------------<5>-<5>-<5>-<5>-----|--------------------------------|
E |------------<5>-<5>-<5>-<5>-----|--------------------------------|
B |5-------5---<5>-<5>-<5>-<5>-5---|----5---5---5---5---5---5-------|
B |5-------5-------------------5---|----5---5---5---5---5---5-------|
E |5-------5-------------------5---|----5---5---5---5---5---5-------|
E |5-------5-------------------5---|----5---5---5---5---5---5-------|





2ND VERSE: repeat x4

CHORUS RIFF II
   Gtr 1
D |3---3---3---3---3---3---3---3---|3---3---3---3---3---3---3---3---|
E |1---1---1---1---1---1---1---1---|1---1---1---1---1---1---1---1---|
G |3---3---3---3---3---3---3---3---|3---3---3---3---3---3---3---3---|
D |x---x---x---x---x---x---x---x---|x---x---x---x---x---x---x---x---|
G |x---x---x---x---x---x---x---x---|x---x---x---x---x---x---x---x---|
E |3---3---3---3---3---3---3---3---|3---3---3---3---3---3---3---3---|
  |
  |Gtr 2
F#|------------<3>-<3>-<3>-<3>-----|------------<3>-<3>-<3>-<3>-<3>-|
E |------------<3>-<3>-<3>-<3>-----|------------<3>-<3>-<3>-<3>-<3>-|
B |3-------3---<3>-<3>-<3>-<3>-3---|----3---3---<3>-<3>-<3>-<3>-<3>-|
B |3-------3-------------------3---|----3---3-----------------------|
E |3-------3-------------------3---|----3---3-----------------------|
E |3-------3-------------------3---|----3---3-----------------------|


   Gtr 1
D |5---5---5---5---5---5---5---5---|5---5---5---5---5---5---5---5---|
E |3---3---3---3---3---3---3---3---|3---3---3---3---3---3---3---3---|
G |5---5---5---5---5---5---5---5---|5---5---5---5---5---5---5---5---|
D |x---x---x---x---x---x---x---x---|x---x---x---x---x---x---x---x---|
G |x---x---x---x---x---x---x---x---|x---x---x---x---x---x---x---x---|
E |5---5---5---5---5---5---5---5---|5---5---5---5---5---5---5---5---|
  |
  |Gtr 2
F#|------------<5>-<5>-<5>-<5>-----|------------<5>-<5>-<5>-<5>-<5>-|
E |------------<5>-<5>-<5>-<5>-----|------------<5>-<5>-<5>-<5>-<5>-|
B |5-------5---<5>-<5>-<5>-<5>-5---|----5---5---<5>-<5>-<5>-<5>-<5>-|
B |5-------5-------------------5---|----5---5-----------------------|
E |5-------5-------------------5---|----5---5-----------------------|
E |5-------5-------------------5---|----5---5-----------------------|


   Gtr 1
D |3---3---3---3---3---3---3---3---|3---3---3---3---3---3---3---3---|
E |1---1---1---1---1---1---1---1---|1---1---1---1---1---1---1---1---|
G |3---3---3---3---3---3---3---3---|3---3---3---3---3---3---3---3---|
D |x---x---x---x---x---x---x---x---|x---x---x---x---x---x---x---x---|
G |x---x---x---x---x---x---x---x---|x---x---x---x---x---x---x---x---|
E |3---3---3---3---3---3---3---3---|3---3---3---3---3---3---3---3---|
  |
  |Gtr 2
F#|------------<3>-<3>-<3>-<3>-----|------------<3>-<3>-<3>-<3>-<3>-|
E |------------<3>-<3>-<3>-<3>-----|------------<3>-<3>-<3>-<3>-<3>-|
B |3-------3---<3>-<3>-<3>-<3>-3---|----3---3---<3>-<3>-<3>-<3>-<3>-|
B |3-------3-------------------3---|----3---3-----------------------|
E |3-------3-------------------3---|----3---3-----------------------|
E |3-------3-------------------3---|----3---3-----------------------|


   Gtr 1
D |5---5---5---5---5---5---5---5---|5---5---5---5---5---5---5---5---|
E |3---3---3---3---3---3---3---3---|3---3---3---3---3---3---3---3---|
G |5---5---5---5---5---5---5---5---|5---5---5---5---5---5---5---5---|
D |x---x---x---x---x---x---x---x---|x---x---x---x---x---x---x---x---|
G |x---x---x---x---x---x---x---x---|x---x---x---x---x---x---x---x---|
E |5---5---5---5---5---5---5---5---|5---5---5---5---5---5---5---5---|
  |
  |Gtr 2
F#|------------<5>-<5>-<5>-<5>-----|------------<5>-<5>-<5>-<5>-<5>-|
E |------------<5>-<5>-<5>-<5>-----|------------<5>-<5>-<5>-<5>-<5>-|
B |5-------5---<5>-<5>-<5>-<5>-5---|----5---5---<5>-<5>-<5>-<5>-<5>-|
B |5-------5-------------------5---|----5---5-----------------------|
E |5-------5-------------------5---|----5---5-----------------------|
E |5-------5-------------------5---|----5---5-----------------------|


   Gtr 1
D |--------------------------------|--------------------------------|
E |--------------------------------|--------------------------------|
G |3---3---3---3---3---3---3---3---|3---3---3---3---3---3---3---3---|
D |x---x---x---x---x---x---x---x---|x---x---x---x---x---x---x---x---|
G |x---x---x---x---x---x---x---x---|x---x---x---x---x---x---x---x---|
E |3---3---3---3---3---3---3---3---|3---3---3---3---3---3---3---3---|
  |
  |Gtr 2
F#|------------<3>-<3>-<3>-<3>-----|------------<3>-<3>-<3>-<3>-<3>-|
E |------------<3>-<3>-<3>-<3>-----|------------<3>-<3>-<3>-<3>-<3>-|
B |3-------3---<3>-<3>-<3>-<3>-3---|----3---3---<3>-<3>-<3>-<3>-<3>-|
B |3-------3-------------------3---|----3---3-----------------------|
E |3-------3-------------------3---|----3---3-----------------------|
E |3-------3-------------------3---|----3---3-----------------------|


   Gtr 1
D |--------------------------------|--------------------------------|
E |--------------------------------|--------------------------------|
G |5---5---5---5---5---5---5---5---|5---5---5---5---5---5---5---5---|
D |x---x---x---x---x---x---x---x---|x---x---x---x---x---x---x---x---|
G |x---x---x---x---x---x---x---x---|x---x---x---x---x---x---x---x---|
E |5---5---5---5---5---5---5---5---|5---5---5---5---5---5---5---5---|
  |
  |Gtr 2
F#|------------<5>-<5>-<5>-<5>-----|------------<5>-<5>-<5>-<5>-<5>-|
E |------------<5>-<5>-<5>-<5>-----|------------<5>-<5>-<5>-<5>-<5>-|
B |5-------5---<5>-<5>-<5>-<5>-5---|----5---5---<5>-<5>-<5>-<5>-<5>-|
B |5-------5-------------------5---|----5---5-----------------------|
E |5-------5-------------------5---|----5---5-----------------------|
E |5-------5-------------------5---|----5---5-----------------------|


   Gtr 1
D |--------------------------------|--------------------------------|
E |--------------------------------|--------------------------------|
G |3---3---3---3---3---3---3---3---|3---3---3---3---3---3---3---3---|
D |x---x---x---x---x---x---x---x---|x---x---x---x---x---x---x---x---|
G |x---x---x---x---x---x---x---x---|x---x---x---x---x---x---x---x---|
E |3---3---3---3---3---3---3---3---|3---3---3---3---3---3---3---3---|
  |
  |Gtr 2
F#|------------<3>-<3>-<3>-<3>-----|------------<3>-<3>-<3>-<3>-<3>-|
E |------------<3>-<3>-<3>-<3>-----|------------<3>-<3>-<3>-<3>-<3>-|
B |3-------3---<3>-<3>-<3>-<3>-3---|----3---3---<3>-<3>-<3>-<3>-<3>-|
B |3-------3-------------------3---|----3---3-----------------------|
E |3-------3-------------------3---|----3---3-----------------------|
E |3-------3-------------------3---|----3---3-----------------------|


   Gtr 1
D |--------------------------------|5/5/6/6/7/7/8/8/9/9/101011111213|
E |--------------------------------|x-x-x-x-x-x-x-x-x-x-x-x-x-x-x-x-|
G |5---5---5---5---5---5---5---5---|5/5/6/6/7/7/8/8/9/9/101011111213|
D |x---x---x---x---x---x---x---x---|x-x-x-x-x-x-x-x-x-x-x-x-x-x-x-x-|
G |x---x---x---x---x---x---x---x---|5/5/6/6/7/7/8/8/9/9/101011111213|
E |5---5---5---5---5---5---5---5---|--------------------------------|
  |
  |Gtr 2
F#|------------<5>-<5>-<5>-<5>-----|--------------------------------|
E |------------<5>-<5>-<5>-<5>-----|--------------------------------|
B |5-------5---<5>-<5>-<5>-<5>-5---|----5---5---5---5---5---5---5---|
B |5-------5-------------------5---|----5---5---5---5---5---5---5---|
E |5-------5-------------------5---|----5---5---5---5---5---5---5---|
E |5-------5-------------------5---|----5---5---5---5---5---5---5---|





SOLO BREAK
   Gtr 1
D |14------14--14--14--14--14--14--|14\-12--12--12------12--12--12--|
E |x-------x---x---x---x---x---x---|x---x---x---x-------x---x---x---|
G |14------14--14--14--14--14--14--|14\-12--12--12------12--12--12--|
D |x-------x---x---x---x---x---x---|x---x---x---x-------x---x---x---|
G |14------14--14--14--14--14--14--|14\-12--12--12------12--12--12--|
E |--------------------------------|--------------------------------|
  |
  |Gtr 2
F#|--------------------------------|--------------------------------|
E |12------12--12--12------12--12--|12\-10------10------10--10------|
B |10------10--10--10------10--10--|10\-8-------8-------8---8-------|
B |--------------------------------|--------------------------------|
E |--------------------------------|--------------------------------|
E |--------------------------------|--------------------------------|


   Gtr 1
D |5-------5---5---5---5---5---5---|5\--3---3---3-------3---3---3/--|
E |x-------x---x---x---x---x---x---|x---x---x---x-------x---x---x---|
G |5-------5---5---5---5---5---5---|5\--3---3---3-------3---3---3/--|
D |x-------x---x---x---x---x---x---|x---x---x---x-------x---x---x---|
G |5-------5---5---5---5---5---5---|5\--3---3---3-------3---3---3/--|
E |--------------------------------|--------------------------------|
  |
  |Gtr 2
F#|--------------------------------|--------------------------------|
E |8-------8---8---8-------8---8---|8\--6-------6~~~~~~~~~~~--------|
B |--------------------------------|--------------------------------|
B |--------------------------------|--------------------------------|
E |--------------------------------|--------------------------------|
E |--------------------------------|--------------------------------|


   Gtr 1
D |14------14--14--14--14--14--14--|14\-12--12--12------12--12--12--|
E |x-------x---x---x---x---x---x---|x---x---x---x-------x---x---x---|
G |14------14--14--14--14--14--14--|14\-12--12--12------12--12--12--|
D |x-------x---x---x---x---x---x---|x---x---x---x-------x---x---x---|
G |14------14--14--14--14--14--14--|14\-12--12--12------12--12--12--|
E |--------------------------------|--------------------------------|
  |
  |Gtr 2
F#|--------------------------------|--------------------------------|
E |12------12--12--12------12--12--|12\-10------10------10--10------|
B |10------10--10--10------10--10--|10\-8-------8-------8---8-------|
B |--------------------------------|--------------------------------|
E |--------------------------------|--------------------------------|
E |--------------------------------|--------------------------------|


   Gtr 1
D |5~~~~~~~~~~~~~~~~~~~----5---5---|5---3-------3-------3---3---3---|
E |x-----------------------x---x---|x---x-------x-------x---x---x---|
G |5~~~~~~~~~~~~~~~~~~~----5---5---|5---3-------3-------3---3---3---|
D |x-----------------------x---x---|x---x-------x-------x---x---x---|
G |5~~~~~~~~~~~~~~~~~~~----5---5---|5---3-------3-------3---3---3---|
E |--------------------------------|--------------------------------|
  |
  |Gtr 2
F#|--------------------------------|--------------------------------|
E |8~~~~~~~~~~~~~~~~~~~----8/--9\--|8---6-------6~~~~~~~~~~~--------|
B |--------------------------------|--------------------------------|
B |--------------------------------|--------------------------------|
E |--------------------------------|--------------------------------|
E |--------------------------------|--------------------------------|


   Gtr 1
D |--------------------------------|--------------------------------|
E |--------------------------------|--------------------------------|
G |--------------------------------|--------------------------------|
D |5-h-7---7---7---7-p-5---5---5---|5-h-7---7---7---7-p-5---5---5---|
G |--------------------------------|--------------------------------|
E |--------------------------------|--------------------------------|
  |
  |Gtr 2
F#|8---8---8---8---8---8---8---8---|----8---8---8---8---8---8\------|
E |8---8---8---8---8---8---8---8---|----8---8---8---8---8---8\------|
B |8-h-10--10--10--10p-8---8-h-10--|----10--10--8---8---10--10\-----|
B |8-h-10--10--10--10p-8---8-h-10--|----10--10--8---8---10--10\-----|
E |8---8---8---8---8---8---8---8---|----8---8---8---8---8---8\------|
E |8---8---8---8---8---8---8---8---|----8---8---8---8---8---8\------|


   Gtr 1
D |--------------------------------|--------------------------------|
E |--------------------------------|--------------------------------|
G |--------------------------------|--------------------------------|
D |--------------------------------|--------------------------------|
G |5-h-7---7---7~~~~~~~~~~~----7---|7---7---7---7---7-p-5---5---5---|
E |--------------------------------|--------------------------------|
  |
  |Gtr 2
F#|1---1---1---1---1---1---1---1---|----1---1---1---1---1---1/------|
E |1---1---1---1---1---1---1---1---|----1---1---1---1---1---1/------|
B |1-h-3---3---3---3-p-1---1-h-3---|----3---3---1---1---3---3/------|
B |1-h-3---3---3---3-p-1---1-h-3---|----3---3---1---1---3---3/------|
E |1---1---1---1---1---1---1---1---|----1---1---1---1---1---1/------|
E |1---1---1---1---1---1---1---1---|----1---1---1---1---1---1/------|


   Gtr 1
D |--------------------------------|--------------------------------|
E |--------------------------------|--------------------------------|
G |--------------------------------|--------------------------------|
D |5-h-7---7---7---7-p-5---5---5---|5-h-7---7---7---7-p-5---5---5---|
G |--------------------------------|--------------------------------|
E |--------------------------------|--------------------------------|
  |
  |Gtr 2
F#|8---8---8---8---8---8---8---8---|----8---8---8---8---8---8\------|
E |8---8---8---8---8---8---8---8---|----8---8---8---8---8---8\------|
B |8-h-10--10--10--10p-8---8-h-10--|----10--10--8---8---10--10\-----|
B |8-h-10--10--10--10p-8---8-h-10--|----10--10--8---8---10--10\-----|
E |8---8---8---8---8---8---8---8---|----8---8---8---8---8---8\------|
E |8---8---8---8---8---8---8---8---|----8---8---8---8---8---8\------|


   Gtr 1
D |--------------------------------|--------------------------------|
E |--------------------------------|--------------------------------|
G |--------------------------------|--------------------------------|
D |--------------------------------|--------------------------------|
G |5-h-7---7---7~~~~~~~~~~~----7---|7---7---7---7---7-p-5---0-------|
E |--------------------------------|--------------------------------|
  |
  |Gtr 2
F#|1---1---1---1---1---1---1---1---|----1---1---1---1---1---1/------|
E |1---1---1---1---1---1---1---1---|----1---1---1---1---1---1/------|
B |1-h-3---3---3---3-p-1---1-h-3---|----3---3---1---1---3---3/------|
B |1-h-3---3---3---3-p-1---1-h-3---|----3---3---1---1---3---3/------|
E |1---1---1---1---1---1---1---1---|----1---1---1---1---1---1/------|
E |1---1---1---1---1---1---1---1---|----1---1---1---1---1---1/------|


   Gtr 1
D |--------------------------------|--------------------------------|
E |--------------------------------|--------------------------------|
G |7/--9---9---9-------9---9---9---|7/--9---9---9-------9---9---9---|
D |7/--9---9---9-------9---9---9---|7/--9---9---9-------9---9---9---|
G |7/--9---9---9-------9---9---9---|7/--9---9---9-------9---9---9---|
E |0---0---0---0-------0---0---0---|0---0---0---0-------0---0---0---|
  |
  |Gtr 2
F#|------------12----------12------|------------12----------12------|
E |------------12----------12------|------------12----------12------|
B |10/-12--12--12----------12------|10/-12--12--12----------12------|
B |10/-12--12--12----------12------|10/-12--12--12----------12------|
E |0---0---0---0-----------0-------|0---0---0---0-----------0-------|
E |0---0---0---0-----------0-------|0---0---0---0-----------0-------|


   Gtr 1
D |--------------------------------|----17--------------------------|
E |--------------------------------|--------15----------------------|
G |15/-17--17--17~~~~~~~~~~~~~~----|17----------17--17--17--17------|
D |x---x---x---x-------------------|--------------------------------|
G |15/-17--17--17~~~~~~~~~~~~~~----|--------------------------------|
E |--------------------------------|--------------------------------|
  |
  |Gtr 2
F#|--------------------------------|--------------------------------|
E |--------------------------------|--------------------------------|
B |6/--8---8---8-------8---8-------|6/--8---8---8-------8---8-------|
B |6/--8---8---8-------8---8-------|6/--8---8---8-------8---8-------|
E |6/--8---8---8-------8---8-------|6/--8---8---8-------8---8-------|
E |6/--8---8---8-------8---8-------|6/--8---8---8-------8---8-------|


   Gtr 1
D |--------------------------------|--------------------------------|
E |--------------------------------|--------------------------------|
G |7/--9---9---9-------9---9---9---|7/--9---9---9-------9---9---9---|
D |7/--9---9---9-------9---9---9---|7/--9---9---9-------9---9---9---|
G |7/--9---9---9-------9---9---9---|7/--9---9---9-------9---9---9---|
E |0---0---0---0-------0---0---0---|0---0---0---0-------0---0---0---|
  |
  |Gtr 2
F#|------------12----------12------|------------12----------12------|
E |------------12----------12------|------------12----------12------|
B |10/-12--12--12----------12------|10/-12--12--12----------12------|
B |10/-12--12--12----------12------|10/-12--12--12----------12------|
E |0---0---0---0-----------0-------|0---0---0---0-----------0-------|
E |0---0---0---0-----------0-------|0---0---0---0-----------0-------|


   Gtr 1
D |--------------------------------|----17--------------------------|
E |--------------------------------|--------15----------------------|
G |15/-17--17--17~~~~~~~~~~~~~~----|17----------17--17--17--17------|
D |x---x---x---x-------------------|--------------------------------|
G |15/-17--17--17~~~~~~~~~~~~~~----|--------------------------------|
E |--------------------------------|--------------------------------|
  |
  |Gtr 2
F#|--------------------------------|--------------------------------|
E |--------------------------------|--------------------------------|
B |6/--8---8---8-------8---8-------|6/--8---8---8-------8---8-------|
B |6/--8---8---8-------8---8-------|6/--8---8---8-------8---8-------|
E |6/--8---8---8-------8---8-------|6/--8---8---8-------8---8-------|
E |6/--8---8---8-------8---8-------|6/--8---8---8-------8---8-------|


   Gtr 1
D |--------------------------------|----------------12------12------|
E |--------------------------------|------------9-------9-----------|
G |----------------9-----------12~~|----9---------------------------|
D |--------9-----------12--9-------|--------12----------------------|
G |9-h-12------12------------------|--------------------------------|
E |--------------------------------|--------------------------------|
  |
  |Gtr 2
F#|--------------------------------|------------12------------------|
E |----------------10h-12p-10-12b13|----12--10--12------12--10------|
B |--------9---12------------------|--------------------------------|
B |10h-12--------------------------|--------------------------------|
E |--------------------------------|--------------------------------|
E |--------------------------------|--------------------------------|


   Gtr 1
D |--------------------------------|--------------------------------|
E |--------------------------------|--------------------------------|
G |5---5---5---5---5---5---5---5---|5---5---5---5---5---5---5---5---|
D |5---5---7---5---5---5---7---5---|5---5---7---5---5---5---7---5---|
G |5---5---5---5---5---5---5---5---|5---5---5---5---5---5---5---5---|
E |--------------------------------|--------------------------------|
  |
  |Gtr 2
F#|8---8---8---8---8---8---8---8---|----8---8---8---8---8---8---8---|
E |8---8---8---8---8---8---8---8---|----8---8---8---8---8---8---8---|
B |8---8---10--8---8---8---10--8---|----8---10--8---8---8---10--8---|
B |8---8---10--8---8---8---10--8---|----8---10--8---8---8---10--8---|
E |8---8---8---8---8---8---8---8---|----8---8---8---8---8---8---8---|
E |8---8---8---8---8---8---8---8---|----8---8---8---8---8---8---8---|


   Gtr 1
D |--------------------------------|----------------12------12------|
E |--------------------------------|------------9-------9-----------|
G |----------------9-----------12~~|----9---------------------------|
D |--------9-----------12--9-------|--------12----------------------|
G |9-h-12------12------------------|--------------------------------|
E |--------------------------------|--------------------------------|
  |
  |Gtr 2
F#|--------------------------------|--------------------10--12------|
E |12b`14``````````14`r12--10------|------------10--12--------------|
B |----------------------------12~~|----10--12----------------------|
B |--------------------------------|--------------------------------|
E |--------------------------------|--------------------------------|
E |--------------------------------|--------------------------------|


   Gtr 1
D |--------------------------------|--------------------------------|
E |--------------------------------|--------------------------------|
G |5---5---5---5---5---5---5---5---|5---5---5---5---5---5---5---5---|
D |5---5---7---5---5---5---7---5---|5---5---7---5---5---5---7---5---|
G |5---5---5---5---5---5---5---5---|5---5---5---5---5---5---5---5---|
E |--------------------------------|--------------------------------|
  |
  |Gtr 2
F#|8---8---8---8---8---8---8---8---|----8---8---8---8---8-----------|
E |8---8---8---8---8---8---8---8---|----8---8---8---8---8-----------|
B |8---8---10--8---8---8---10--8---|----8---10--8---8---8---10/-----|
B |8---8---10--8---8---8---10--8---|----8---10--8---8---8-----------|
E |8---8---8---8---8---8---8---8---|----8---8---8---8---8-----------|
E |8---8---8---8---8---8---8---8---|----8---8---8---8---8-----------|


   Gtr 1
D |----------------------------17^^|^^^^----17^^17^^17^^17^^17^^----|
E |----------------------------15^^|^^^^----15^^15^^15^^15^^15^^----|
G |9---------------------------0---|--------0---0---0---0---0-------|
D |9-------------------------------|--------------------------------|
G |9-------------------------------|--------------------------------|
E |0-------------------0---0-------|--------------------------------|
  |
  |Gtr 2
F#|--------------------------------|----------------15------17------|
E |------------14~~~~~~----15~~~~~~|----15/-17----------------------|
B |17~~~~~~------------------------|--------------------------------|
B |--------------------------------|--------------------------------|
E |--------------------------------|--------------------------------|
E |--------------------------------|--------------------------------|


   Gtr 1
D |----------------------------19^^|^^^^----19^^19^^19^^19^^19^^----|
E |----------------------------17^^|^^^^----17^^17^^17^^17^^17^^----|
G |5-------------------0---0---0---|--------0---0---0---0---0-------|
D |5-------------------------------|--------------------------------|
G |5-------------------------------|--------------------------------|
E |--------------------------------|--------------------------------|
  |
  |Gtr 2
F#|17----------18----------20b22```|````````````````22`````r20------|
E |--------------------------------|--------------------------------|
B |--------------------------------|--------------------------------|
B |--------------------------------|--------------------------------|
E |--------------------------------|--------------------------------|
E |--------------------------------|--------------------------------|


   Gtr 1
D |----------------------------17^^|^^^^----17^^----17^^----17^^----|
E |----------------------------15^^|^^^^----15^^----15^^----15^^----|
G |9---------------------------0---|--------0-------0-------0-------|
D |9-------------------------------|--------------------------------|
G |9-------------------------------|--------------------------------|
E |0-------------------0---0-------|--------------------------------|
  |
  |Gtr 2
F#|20^^^^^^^^^^^^^^20^^^^^^^^^^20^^|^^^^20^^^^^^^^^^20^^^^^^^^^^^^^^|
E |20^^^^^^^^^^^^^^20^^^^^^^^^^20^^|^^^^20^^^^^^^^^^20^^^^^^^^^^^^^^|
B |20^^^^^^^^^^^^^^20^^^^^^^^^^20^^|^^^^20^^^^^^^^^^20^^^^^^^^^^^^^^|
B |--------------------------------|--------------------------------|
E |--------------------------------|--------------------------------|
E |--------------------------------|--------------------------------|


   Gtr 1
D |--------------------------------|--------------------------------|
E |--------------------------------|--------------------------------|
G |5-------------------------------|--------------------------------|
D |5---------------------------pick|slide---------------------------|
G |5-------------------5---5---x===|x===x===x===x===x===x===x===x===|
E |----------------------------x===|x===x===x===x===x===x===x===x===|
  |
  |Gtr 2
F#|------------18--18--20--18--20^^|^^^^^^^^^^^^^^^^^^^^^^^^^^^^----|
E |20^^20^^20^^--------------------|--------------------------------|
B |20^^20^^20^^--------------------|--------------------------------|
B |--------------------------------|--------------------------------|
E |--------------------------------|--------------------------------|
E |--------------------------------|--------------------------------|


   Gtr 1
D |--------------------------------|<7>-\--/---\--/-----------------|
E |--------------------------------|<7>--\/-----\/--<7>-\--/---\--/-|
G |--------------------------------|----------------<7>--\/-----\/--|
D |--------------------------------|--------------------------------|
G |<7>-\--/---\--/---\--/---\--/---|--------------------------------|
E |<7>--\/-----\/-----\/-----\/----|--------------------------------|
  |
  |Gtr 2
F#|--------------------------------|--------------------------------|
E |------------------------<7>-----|--------------------------------|
B |--------------------------------|--------------------------------|
B |------------<7>-----------------|--------------------------------|
E |<7>-----------------------------|--------------------------------|
E |--------------------------------|--------------------------------|


   Gtr 1
D |--------------------------------|<5>-\--/---\--/-----------------|
E |--------------------------------|<5>--\/-----\/--<5>-\--/---\--/-|
G |--------------------------------|----------------<5>--\/-----\/--|
D |<5>-\--/---\--/---\--/---\--/---|--------------------------------|
G |<5>--\/-----\/-----\/-----\/----|--------------------------------|
E |--------------------------------|--------------------------------|
  |
  |Gtr 2
F#|------------<5>-----------------|--------------------------------|
E |--------------------------------|--------------------------------|
B |<5>---------------------<5>-----|--------------------------------|
B |--------------------------------|--------------------------------|
E |--------------------------------|--------------------------------|
E |--------------------------------|--------------------------------|


   Gtr 1
D |--------------------------------|<7>-\--/---\--/-----------------|
E |--------------------------------|<7>--\/-----\/--<7>-\--/---\--/-|
G |--------------------------------|----------------<7>--\/-----\/--|
D |--------------------------------|--------------------------------|
G |<7>-\--/---\--/---\--/---\--/---|--------------------------------|
E |<7>--\/-----\/-----\/-----\/----|--------------------------------|
  |
  |Gtr 2
F#|--------------------------------|-----------\--/-----------------|
E |------------------------<7>-----|------------\/------------------|
B |------------<5>-----------------|--------------------------------|
B |<7>-----------------------------|--------------------------------|
E |--------------------------------|--------------------------------|
E |--------------------------------|--------------------------------|


   Gtr 1
D |--------------------------------|<5>-\--/---\--/-----------------|
E |--------------------------------|<5>--\/-----\/--<5>-\--/---\--/-|
G |--------------------------------|----------------<5>--\/-----\/--|
D |<5>-\--/---\--/---\--/---\--/---|--------------------------------|
G |<5>--\/-----\/-----\/-----\/----|--------------------------------|
E |--------------------------------|--------------------------------|
  |
  |Gtr 2
F#|------------<5>-----------------|(<5>)---------------------------|
E |--------------------------------|--------------------------------|
B |<5>-----------------------------|--------------------------------|
B |--------------------------------|--------------------------------|
E |--------------------------------|--------------------------------|
E |--------------------------------|--------------------------------|


   Gtr 1
D |------------x---x---x---x---7---|----7---7/--9---9\--7---7-------|
E |------------x---x---x---x---5---|----5---5/--7---7\--5---5-------|
G |0-------------------------------|--------------------------------|
D |0-------------------------------|--------------------------------|
G |0-------------------------------|----------------------------0---|
E |--------------------------------|--------------------------------|
  |
  |Gtr 2
F#|--------------------------------|--------------------------------|
E |5b``7```````````````````````````|````````````````7``r5---3-------|
B |--------------------------------|----------------------------5---|
B |--------------------------------|--------------------------------|
E |--------------------------------|--------------------------------|
E |--------------------------------|--------------------------------|


   Gtr 1
D |----------------0---------------|--------------------------------|
E |--------3-----------3-------3---|--------3---------------3-------|
G |------------0-----------0-------|----0-------0-------0-----------|
D |----5---------------------------|5---------------5---------------|
G |5-------------------------------|----------------------------0---|
E |--------------------------------|--------------------------------|
  |
  |Gtr 2
F#|--------------------------------|--------------------------------|
E |--------------------------------|----------------3-h-5---3---3---|
B |3-h-5~~~~~~~~~~~~~~~~~~~~~~~----|--------3-h-5-------------------|
B |--------------------------------|--------------------------------|
E |--------------------------------|--------------------------------|
E |--------------------------------|--------------------------------|


   Gtr 1
D |------------x---x---x---x---7---|----7---7/--9---9\--7---7-------|
E |------------x---x---x---x---5---|----5---5/--7---7\--5---5-------|
G |0-------------------------------|--------------------------------|
D |0-------------------------------|--------------------------------|
G |0-------------------------------|----------------------------0---|
E |--------------------------------|--------------------------------|
  |
  |Gtr 2
F#|--------------------------------|--------------------------------|
E |5b``7```````````````````````````|7``r5-----------3~~~~~~~~~~~----|
B |--------------------------------|--------------------------------|
B |--------------------------------|--------------------------------|
E |--------------------------------|--------------------------------|
E |--------------------------------|--------------------------------|


   Gtr 1
D |----------------0---------------|--------------------------------|
E |--------3-----------3-------3---|--------3---------------3-------|
G |------------0-----------0-------|----0-------0-------0-----------|
D |----5---------------------------|5---------------5---------------|
G |5-------------------------------|----------------------------0---|
E |--------------------------------|--------------------------------|
  |
  |Gtr 2
F#|6/--8---------------8-----------|--------------------------------|
E |6/--8-----------8-----------8---|--------------------------------|
B |6/--8---------------------------|--------------------------------|
B |6/--8---------------------------|--------------------------------|
E |6/--8---------------------------|--------------------------------|
E |6/--8---------------------------|--------------------------------|


   Gtr 1
D |------------x---x---x---x---7---|----7---7/--9---9\--7---7-------|
E |------------x---x---x---x---5---|----5---5/--7---7\--5---5-------|
G |0-------------------------------|--------------------------------|
D |0-------------------------------|--------------------------------|
G |0-------------------------------|----------------------------0---|
E |--------------------------------|--------------------------------|
  |
  |Gtr 2
F#|3-----------3-------------------|--------------------------------|
E |3-------3---------------3-------|--------------------------------|
B |3---3---------------------------|--------------------------------|
B |3-------------------------------|--------------------------------|
E |3-------------------------------|------------------------3/------|
E |3-------------------------------|------------------------3/------|


   Gtr 1
D |----------------0---------------|--------------------------------|
E |--------3-----------3-------3---|--------3---------------3-------|
G |------------0-----------0-------|----0-------0-------0-----------|
D |----5---------------------------|5---------------5---------------|
G |5-------------------------------|----------------------------0---|
E |--------------------------------|--------------------------------|
  |
  |Gtr 2
F#|8-----------8-------------------|--------------------------------|
E |8-------8---------------8-------|--------------------------------|
B |8---8---------------------------|--------------------------------|
B |8-------------------------------|--------------------------------|
E |8-------------------------------|------------------------8\------|
E |8-------------------------------|------------------------8\------|


   Gtr 1
D |------------x---x---x---x---7---|----7---7/--9---9\--7---7-------|
E |------------x---x---x---x---5---|----5---5/--7---7\--5---5-------|
G |0-------------------------------|--------------------------------|
D |0-------------------------------|--------------------------------|
G |0-------------------------------|----------------------------0---|
E |--------------------------------|--------------------------------|
  |
  |Gtr 2
F#|3-----------3-------3-----------|--------------------------------|
E |3-------3---------------3-------|----------------3---------------|
B |3---3---------------------------|--------3---------------3-------|
B |3-------------------------------|--------------------------------|
E |3-------------------------------|--------------------------------|
E |3-------------------------------|--------------------------------|


   Gtr 1
D |----------------0---------------|--------------------------------|
E |--------3-----------3-------3---|--------3---------------3-------|
G |------------0-----------0-------|----0-------0-------0-----------|
D |----5---------------------------|5---------------5---------------|
G |5-------------------------------|----------------------------0---|
E |--------------------------------|--------------------------------|
  |
  |Gtr 2
F#|6/--8-----------------------8---|--------------------------------|
E |6/--8-----------8---------------|--------8-----------------------|
B |6/--8-------8-------8-----------|----------------8\--------------|
B |6/--8---8---------------8-------|--------------------------------|
E |6/--8---------------------------|--------------------------------|
E |6/--8---------------------------|--------------------------------|


   Gtr 1
D |--------------------------------|--------------------------------|
E |--------------------------------|--------------------------------|
G |0---0---3---0---3---0---3---0---|3---6---6b``7```````7```7``r6~~~|
D |0---0---0---0---0---0---0---0---|0---0---0---0-------0---0---0---|
G |0---0---0---0---0---0---0---0---|0---0---0---0-------0---0---0---|
E |--------------------------------|--------------------------------|
  |
  |Gtr 2
F#|--------------------------------|--------------------------------|
E |--------------------------------|--------------------------------|
B |--------------------------------|--------------------------------|
B |--------------------------------|--------------------------------|
E |--------------------------------|--------------------------------|
E |--------------------------------|--------------------------------|


   Gtr 1
D |--------5-5-5-5-5---5---5---5-5-|6---5-------3-------3---5-------|
E |--------x-x-x-x-x---x---x---x-x-|x---x-------x-------x---x-------|
G |--------5-5-5-5-5---5---5---5-5-|6---5-------3-------3---5-------|
D |--------------------------------|x---x-------x-------x---x-------|
G |--------------------------------|6---5-------3-------3---5-------|
E |5---5---------------------------|--------------------------------|
  |
  |Gtr 2
F#|--------------------------------|--------------------------------|
E |--------------------------------|--------------------------------|
B |--------------------------------|------------------------3/------|
B |--------------------------------|--------------------------------|
E |--------------------------------|--------------------------------|
E |--------------------------------|--------------------------------|





3RD VERSE: repeat x3

CHORUS RIFF I

OUTRO
   Gtr 1
D |3---3---3---3---3---3---3---3---|3---3---3---3---3---3---3---3---|
E |1---1---1---1---1---1---1---1---|1---1---1---1---1---1---1---1---|
G |3---3---3---3---3---3---3---3---|3---3---3---3---3---3---3---3---|
D |x---x---x---x---x---x---x---x---|x---x---x---x---x---x---x---x---|
G |x---x---x---x---x---x---x---x---|x---x---x---x---x---x---x---x---|
E |3---3---3---3---3---3---3---3---|3---3---3---3---3---3---3---3---|
  |
  |Gtr 2
F#|--------------------------------|--------------------------------|
E |10------9-------8---------------|--------------------------------|
B |--------------------------------|11--------------8---------------|
B |--------------------------------|--------------------------------|
E |--------------------------------|--------------------------------|
E |--------------------------------|--------------------------------|


   Gtr 1
D |5---5---5---5---5---5---5---5---|5---5---5---5---5---5---5---5---|
E |3---3---3---3---3---3---3---3---|3---3---3---3---3---3---3---3---|
G |5---5---5---5---5---5---5---5---|5---5---5---5---5---5---5---5---|
D |x---x---x---x---x---x---x---x---|x---x---x---x---x---x---x---x---|
G |x---x---x---x---x---x---x---x---|x---x---x---x---x---x---x---x---|
E |5---5---5---5---5---5---5---5---|5---5---5---5---5---5---5---5---|
  |
  |Gtr 2
F#|--------------------------------|--------------------------------|
E |--------------------------------|----------------10------9-------|
B |6---------------8---------------|8/--11--------------------------|
B |--------------------------------|--------------------------------|
E |--------------------------------|--------------------------------|
E |--------------------------------|--------------------------------|


   Gtr 1
D |3---3---3---3---3---3---3---3---|3---3---3---3---3---3---3---3---|
E |1---1---1---1---1---1---1---1---|1---1---1---1---1---1---1---1---|
G |3---3---3---3---3---3---3---3---|3---3---3---3---3---3---3---3---|
D |x---x---x---x---x---x---x---x---|x---x---x---x---x---x---x---x---|
G |x---x---x---x---x---x---x---x---|x---x---x---x---x---x---x---x---|
E |3---3---3---3---3---3---3---3---|3---3---3---3---3---3---3---3---|
  |
  |Gtr 2
F#|--------------------------------|--------------------------------|
E |8-------------------------------|--------------------------------|
B |----------------11--------------|8---------------6---------------|
B |--------------------------------|--------------------------------|
E |--------------------------------|--------------------------------|
E |--------------------------------|--------------------------------|


   Gtr 1
D |5---5---5---5---5---5---5---5---|5---5---5---5---5---5---5---5---|
E |3---3---3---3---3---3---3---3---|3---3---3---3---3---3---3---3---|
G |5---5---5---5---5---5---5---5---|5---5---5---5---5---5---5---5---|
D |x---x---x---x---x---x---x---x---|x---x---x---x---x---x---x---x---|
G |x---x---x---x---x---x---x---x---|x---x---x---x---x---x---x---x---|
E |5---5---5---5---5---5---5---5---|5---5---5---5---5---5---5---5---|
  |
  |Gtr 2
F#|--------------------------------|--------------------------------|
E |--------------------------------|9---------------8---------------|
B |8---------------8/--11----------|--------------------------------|
B |--------------------------------|--------------------------------|
E |--------------------------------|--------------------------------|
E |--------------------------------|--------------------------------|


   Gtr 1
D |10--10--10--10--10--10--10--10--|10--10--10--10--10--10--10--10--|
E |8---8---8---8---8---8---8---8---|8---8---8---8---8---8---8---8---|
G |10--10--10--10--10--10--10--10--|10--10--10--10--10--10--10--10--|
D |x---x---x---x---x---x---x---x---|x---x---x---x---x---x---x---x---|
G |10--10--10--10--10--10--10--10--|10--10--10--10--10--10--10--10--|
E |--------------------------------|--------------------------------|
  |
  |Gtr 2
F#|--------------------------------|--------------------------------|
E |--------------------------------|--------------------------------|
B |11--------------8---------------|6---------------8---------------|
B |--------------------------------|--------------------------------|
E |--------------------------------|--------------------------------|
E |--------------------------------|--------------------------------|


   Gtr 1
D |12--12--12--12--12--12--12--12--|12--12--12--12--12--12--12--12--|
E |10--10--10--10--10--10--10--10--|10--10--10--10--10--10--10--10--|
G |12--12--12--12--12--12--12--12--|12--12--12--12--12--12--12--12--|
D |x---x---x---x---x---x---x---x---|x---x---x---x---x---x---x---x---|
G |12--12--12--12--12--12--12--12--|12--12--12--12--12--12--12--12--|
E |--------------------------------|--------------------------------|
  |
  |Gtr 2
F#|--------------------------------|--------------------------------|
E |----------------9---------------|8-------------------------------|
B |8/--11--------------------------|----------------11--------------|
B |--------------------------------|--------------------------------|
E |--------------------------------|--------------------------------|
E |--------------------------------|--------------------------------|


   Gtr 1
D |15--15--15--15--15--15--15--15--|15--15--15--15--15--15--15--15--|
E |13--13--13--13--13--13--13--13--|13--13--13--13--13--13--13--13--|
G |15--15--15--15--15--15--15--15--|15--15--15--15--15--15--15--15--|
D |x---x---x---x---x---x---x---x---|x---x---x---x---x---x---x---x---|
G |15--15--15--15--15--15--15--15--|15--15--15--15--15--15--15--15--|
E |--------------------------------|--------------------------------|
  |
  |Gtr 2
F#|--------------------------------|--------------------------------|
E |--------------------------------|--------------------------------|
B |8---------------6---------------|8---------------8/--11----------|
B |--------------------------------|--------------------------------|
E |--------------------------------|--------------------------------|
E |--------------------------------|--------------------------------|


   Gtr 1
D |17--17--17--17--17--17--17--17--|17--17--17--17--17--17--17------|
E |15--15--15--15--15--15--15--15--|15--15--15--15--15--15--15------|
G |17--17--17--17--17--17--17--17--|17--17--17--17--17--17--17------|
D |x---x---x---x---x---x---x---x---|x---x---x---x---x---x---x-------|
G |17--17--17--17--17--17--17--17--|17--17--17--17--17--17--17------|
E |--------------------------------|--------------------------------|
  |
  |Gtr 2
F#|--------------------------------|--------------------------------|
E |9---------------8---------------|--------------------------------|
B |--------------------------------|11--------------8---------------|
B |--------------------------------|--------------------------------|
E |--------------------------------|--------------------------------|
E |--------------------------------|--------------------------------|


   Gtr 1
D |3-------------------------------|(3)-----------------------------|
E |1-------------------------------|(1)-----------------------------|
G |3-------------------------------|(3)-----------------------------|
D |x-------------------------------|--------------------------------|
G |3-------------------------------|(3)-----------------------------|
E |--------------------------------|--------------------------------|
  |
  |Gtr 2
F#|--------------------------------|--------------------------------|
E |--------------------------------|--------------------------------|
B |6/--8~~~~~~~~~~~~~~~~~~~~~~~----|--------------------------------|
B |--------------------------------|--------------------------------|
E |--------------------------------|--------------------------------|
E |--------------------------------|--------------------------------|
Tap to rate this tab
# A B C D E F G H I J K L M N O P Q R S T U V W X Y Z