Song name
# A B C D E F G H I J K L M N O P Q R S T U V W X Y Z

Sonic Youth - Schizophrenia tab

"Schizophrenia"
by: Sonic Youth
album: "Sister" (1987)


Verse:

E|-------------------------------|-------------------------------|
B|--7--7-7-7-7-7-7--7-7-7-7-7-7--|-------------------------------|
G|--x--x-x-x-x-x-x--x-x-x-x-x-x--|--9--9-9-9-9-9-9--9-9-9-9-9-9--|
D|--x--x-x-x-x-x-x--x-x-x-x-x-x--|--x--7-7-7-7-7-7--7-7-7-7-7-7--| 
A|--9--9-9-9-9-9-9--9-9-9-9-9-9--|--7--0-0-0-0-0-0--0-0-0-0-0-0--|
E|-------------------------------|-------------------------------|

E|-------------------------------|-------------------------------|
B|-------------------------------|-------------------------------|
G|--7--7-7-7-7-7-7--7-7-7-7-7-7--|--7--7-7-7-7-7-7--7-7-7-7-7-7--|
D|--x--5-5-5-5-5-5--5-5-5-5-5-5--|--x--x-x-x-x-x-x--x-x-x-x-x-x--|
A|--5--0-0-0-0-0-0--0-0-0-0-0-0--|--5--5-5-5-5-5-5--5-5-5-5-5-5--|
E|-------------------------------|-------------------------------|

E|--------------------------------------|
B|--------------------------------------|
G|--6--6-6-6-6--6b-6b-6b-6b-6b-6br-6br--|
D|--x--x-x-x-x--x--x--x--x--x--x---x----|
A|--4--4-4-4-4--4--4--4--4--4--4---4----|
E|--------------------------------------|

Interlude:

Guitar 2:

E|----------5-5------|---------------------------|
B|------8-8-----8----|---------------------------|
G|--7-7-7-7-7-7-7-7--|--11-11-11-11-11-11-11-11--|
D|--7-7-7-7-7-7-7-7--|--11-11-11-11-11-11-11-11--|
A|--5-5-5-5-5-5-5-5--|--9--9--9--9--9--9--9--9---|
E|-------------------|---------------------------|

Guitar 1:

E|--------------|-------5-6b-5--|-------10-------10--|--------------------|------|
B|-----7--7pbr--|---------------|--------------------|--12/10------12/10--|--10--|
G|--------------|----6----------|--/11------11-9-----|--------9-----------|--9---|
D|--7-----------|--7------------|--------------------|----------12--------|--7---|
A|--------------|---------------|--------------------|--------------------|------|
E|--------------|---------------|--------------------|--------------------|------|

Interlude 2:

Guitar 1:

E|---------------|--12----10--9--|  |-10-9-12-9-10-9-12-9-10-9-12-9-10-9-12--|
B|--10----8---7--|--10----8---7--|                 Guitar 2
G|---------------|---------------|
D|---------------|---------------|
A|---------------|--12----10--9--|
E|---------------|---------------|

Interlude 3

E|----------------------|----------------------|
B|--2--2--2-2-2--2-2-2--|--2--2--2-2-2--2-2-2--|
G|--x--x--x-x-x--x-x-x--|--2--2--2-2-2--2-2-2--|
D|--x--x--x-x-x--x-x-x--|--2--2--2-2-2--2-2-2--|
A|--4--4--4-4-4--4-4-4--|--0--0--0-0-0--0-0-0--|
E|----------------------|----------------------|

E|-----------------------------------------|
B|--0--0--0--0-0-0-0-2-2--2--2--2-2-2-0-0--|
G|--3--3--3--3-3-2-3-0-2--2--2--2-2-2-3-0--|
D|--0--0--0--0-0-0-0-0-0--0--0--0-0-0-0-0--|
A|-----------------------------------------|
E|-----------------------------------------|

So, this is how I think the song goes...
If you have any idea of how to improve the tab, let me know
Thank you!!!
Tap to rate this tab
# A B C D E F G H I J K L M N O P Q R S T U V W X Y Z