Song name
# A B C D E F G H I J K L M N O P Q R S T U V W X Y Z

Sonic Youth - Death Valley 6 tab

#----------------------------------PLEASE NOTE---------------------------------#
#This file is the author's own work and represents their interpretation of the #
#song. You may only use this file for private study, scholarship, or research. #
#------------------------------------------------------------------------------##
 From:          "EA Banks"  
> Subject:       tab for DV'69
> To:            michael@magick.net
> Date:          Thu, 23 Nov 1995 20:03:23 +0000 (GMT)

> DEATH VALLEY '69
>
> TUNING - F#-F#-F#-F#-E-B
>
> GUITAR 1                     GUITAR 2
>
> B  -------                   ---------------------------------------------|
> E  -------                   ---------------------------------------------|
> F# -2-2-2-                   -9-9-9-9-9-9-12-12-13-13-13-13-13-13-10-10-9-|
> F# -2-2-2-                   -9-9-9-9-9-9-12-12-13-13-13-13-13-13-10-10-9-|
> F# -2-2-2-                   ---------------------------------------------|
> F# -2-2-2-                   ---------------------------------------------|
>
> GUITAR 1 "Coming Down..."          GUITAR 2
>
> B  -------------------------       -------------------------|
> E  -------------------------       -------------------------|
> F# -2-2-0-0-2-2-2-2-0-0-0-0-       -9-9-7-7-9-9-9-9-7-7-7-7-|
> F# -2-2-0-0-2-2-2-2-0-0-0-0-       -9-9-7-7-9-9-9-9-7-7-7-7-|
> F# -2-2-0-0-2-2-2-2-0-0-0-0-       -------------------------|
> F# -2-2-0-0-2-2-2-2-0-0-0-0-       -------------------------|
>
> GUITAR 2 "You're right.."          GUITAR 1
>
> B  -----------                     -----|
> E  -----------                     -----|
> F# -7-0-7-7-0-                     -5-5-|      Deaden these notes.
> F# -7-0-7-7-0-                     -5-5-|
> F# -----------                     -5-5-|
> F# -----------                     -5-5-|
>
> AARRPP. ED
>
>
BTAB
Song: Death Valley '69
By: Sonic Youth
Tab by: Jake (jcholewc@sparky.lkwash.wednet.edu)

This is riff is played through out the song

-----------------|
-----------------|
-----------------|
-2-2-0-2-2-2-2-0-|


Corrections?/Comments??/ideas???
e-mail jcholewc@sparky.lkwash.wednet.edu
Tap to rate this tab
# A B C D E F G H I J K L M N O P Q R S T U V W X Y Z