Song name
# A B C D E F G H I J K L M N O P Q R S T U V W X Y Z

Sonic Youth - Kotton Krown tab

Sonic Youth
Kotton Krown   -   track 7
Screaming Fields of Sonic Love
Kanybal_george@hotmail.com

Intro/Verse
Guit 1
e---------------|--------------------|---------------|-----------------|
B---------------|--------------5-5-5-|---------------|----------5-5-5--|
G--4-4--5-5--7--|---7-7--5-5---------|-4-4--5-5--7---|-7-7--5-5--------|
D--2-2--3-3--5--|---5-5--3-3---------|-2-2--3-3--5---|-5-5--3-3--------|
A--2-2--3-3--5--|---5-5--3-3---------|-2-2--3-3--5---|-5-5--3-3--------|
E---------------|--------------------|---------------|-----------------|

Guit 2
e---------------------------------------|
B-0-0-1-1-3----3-3--1-1-----------------|
G---------------------------------------|
D---------------------------------------|
A---------------------------------------|
E---------------------------------------|

Then
e---------------------------------------|
B---------------------------------------|
G---------------------------------------|
D----------9-9-9-7-9-7-10---------------|x4
A-8--8-8--8-----------------------------|
E---------------------------------------|

e---------------------------------------|
B---------------------------------------|
G---------------------------------------|
D-7--9-7-----7--11~~--------------------|x4
A--------8-8----------------------------|
E---------------------------------------|

Distorsion
Tap to rate this tab
# A B C D E F G H I J K L M N O P Q R S T U V W X Y Z