Song name
# A B C D E F G H I J K L M N O P Q R S T U V W X Y Z

Sonic Youth - Green Light tab

Help us improve GuitareTab! Take a short survey!
Green Light
EVOL (1986)

*This is the song's main riff. When I figure out the rest, I will post a full tab.*

This is the main guitar:

Eb--------------------------------------|
Eb--------------------------------------|
D---6-6-6-4--6-6-6-6--9-9-9-9--6-6-6-4--|
D---6-6-6-4--6-6-6-6--9-9-9-9--6-6-6-4--|
G---------------------------------------|
G---------------------------------------|

Eb----------------------------------------------------------------|
Eb----------------------------------------------------------------|
D---9-9-9-9-9-9-9-9-9-9-9-9-9-9-11-6-6-6-6-6-6-6-6-6-6-6-6-6-9-6--|
D---9-9-9-9-9-9-9-9-9-9-9-9-9-9-11-6-6-6-6-6-6-6-6-6-6-6-6-6-9-6--|
G-----------------------------------------------------------------|
G-----------------------------------------------------------------|
Related for Green Light tab