Song name
# A B C D E F G H I J K L M N O P Q R S T U V W X Y Z

Sonic Youth - Queen Bee And Her Pals tab

Sonic Youth - Queen Bee And Her Pals                                                              


                     Q    Q    Q    Q       Q    Q    Q    Q     
E||-------|-------|----------------------|----------------------|
B||-------|-------|----------------------|----------------------|
G||-------|-------|----------------------|----------------------|
D||-------|-------|-------3----2---------|-------6----5---------|
G||-------|-------|--0--------------3----|--3--------------6----|
E||-------|-------|----------------------|----------------------|


  E  E  E  E  E  E  E  E     E  E  E  E  E  E  E  E   
--------------------------|--------------------------|
--------------------------|--------------------------|
--6--x--6--x--6--x--6--x--|--7--x--7--x--7--x--7--x--|
-----x-----x-----x-----x--|-----x-----x-----x-----x--|
--6--x--6--x--6--x--6--x--|--7--x--7--x--7--x--7--x--|
--------------------------|--------------------------|


  E  E  E  E  E  E  E  E     E  E  E  E  E  E  E  E   
--------------------------|--------------------------|
--------------------------|--------------------------|
--------------------------|--------------------------|
--------3--3--2--2--------|--------6--6--5--5--------|
--0--0--------------3--3--|--3--3--------------6--6--|
--------------------------|--------------------------|


  E  E  E  E  E  E  E  E     E  E  E  E  E  E  E  E   
--------------------------|--------------------------|
--------------------------|--------------------------|
--6--x--6--x--6--x--6--x--|--7--x--7--x--7--x--7--x--|
-----x-----x-----x-----x--|-----x-----x-----x-----x--|
--6--x--6--x--6--x--6--x--|--7--x--7--x--7--x--7--x--|
--------------------------|--------------------------|


  E  E  E  E  E  E  E  E     E  E  E  E  E  E  E  E   
--------------------------|--------------------------|
--------------------------|--------------------------|
--------------------------|--------------------------|
--------3--3--2--2--------|--------6--6--5--5--------|
--0--0--------------3--3--|--3--3--------------6--6--|
--------------------------|--------------------------|


  E  E  E  E  E  E  E  E     E  E  E  E  E  E  E  E   
--------------------------|--------------------------|
--------------------------|--------------------------|
--6--x--6--x--6--x--6--x--|--7--x--7--x--7--x--7--x--|
-----x-----x-----x-----x--|-----x-----x-----x-----x--|
--6--x--6--x--6--x--6--x--|--7--x--7--x--7--x--7--x--|
--------------------------|--------------------------|


  E  E  E  E  E  E  E  E     E  E  E  E  E  E  E  E   
--------------------------|--------------------------|
--------------------------|--------------------------|
--------------------------|--------------------------|
--------3--3--2--2--------|--------6--6--5--5--------|
--0--0--------------3--3--|--3--3--------------6--6--|
--------------------------|--------------------------|


  E  E  E  E  E  E  E  E     E  E  E  E  E  E  E  E   
--------------------------|--------------------------|
--------------------------|--------------------------|
--6--x--6--x--6--x--6--x--|--7--x--7--x--7--x--7--x--|
-----x-----x-----x-----x--|-----x-----x-----x-----x--|
--6--x--6--x--6--x--6--x--|--7--x--7--x--7--x--7--x--|
--------------------------|--------------------------|


  E  E  E  E  E  E  E  E     E  E  E  E  E  E  E  E   
--------------------------|--------------------------|
--------------------------|--------------------------|
--------------------------|--------------------------|
--------3--3--2--2--------|--------6--6--5--5--------|
--0--0--------------3--3--|--3--3--------------6--6--|
--------------------------|--------------------------|


  E  E  E  E  E  E  E  E     E  E  E  E  E  E  E  E   
--------------------------|--------------------------|
--------------------------|--------------------------|
--6--x--6--x--6--x--6--x--|--7--x--7--x--7--x--7--x--|
-----x-----x-----x-----x--|-----x-----x-----x-----x--|
--6--x--6--x--6--x--6--x--|--7--x--7--x--7--x--7--x--|
--------------------------|--------------------------|


  E  E  E  E  E  E  E  E     E  E  E  E  E  E  E  E   
--------------------------|--------------------------|
--------------------------|--------------------------|
--------------------------|--------------------------|
--------3--3--2--2--------|--------6--6--5--5--------|
--0--0--------------3--3--|--3--3--------------6--6--|
--------------------------|--------------------------|


  E  E  E  E  E  E  E  E     E  E  E  E  E  E  E  E   
--------------------------|--------------------------|
--------------------------|--------------------------|
--6--x--6--x--6--x--6--x--|--7--x--7--x--7--x--7--x--|
-----x-----x-----x-----x--|-----x-----x-----x-----x--|
--6--x--6--x--6--x--6--x--|--7--x--7--x--7--x--7--x--|
--------------------------|--------------------------|


  E  E  E  E  E  E  E  E     E  E  E  E  E  E  E  E   
--------------------------|--------------------------|
--------------------------|--------------------------|
--------------------------|--------------------------|
--------3--3--2--2--------|--------6--6--5--5--------|
--0--0--------------3--3--|--3--3--------------6--6--|
--------------------------|--------------------------|


  E  E  E  E  E  E  E  E     E  E  E  E  E  E  E  E   
--------------------------|--------------------------|
--------------------------|--------------------------|
--6--x--6--x--6--x--6--x--|--7--x--7--x--7--x--7--x--|
-----x-----x-----x-----x--|-----x-----x-----x-----x--|
--6--x--6--x--6--x--6--x--|--7--x--7--x--7--x--7--x--|
--------------------------|--------------------------|


  E  E  E  E  E  E  E  E     E  E  E  E  E  E  E  E   
--------------------------|--------------------------|
--------------------------|--------------------------|
--------------------------|--------------------------|
--------3--3--2--2--------|--------6--6--5--5--------|
--0--0--------------3--3--|--3--3--------------6--6--|
--------------------------|--------------------------|


  E  E  E  E  E  E  E  E     E  E  E  E  E  E  E  E   
--------------------------|--------------------------|
--------------------------|--------------------------|
--6--x--6--x--6--x--6--x--|--7--x--7--x--7--x--7--x--|
-----x-----x-----x-----x--|-----x-----x-----x-----x--|
--6--x--6--x--6--x--6--x--|--7--x--7--x--7--x--7--x--|
--------------------------|--------------------------|


  E  E  E  E  E  E  E  E     E  E  E  E  E  E  E  E   
--------------------------|--------------------------|
--------------------------|--------------------------|
--------------------------|--------------------------|
--------3--3--2--2--------|--------6--6--5--5--------|
--0--0--------------3--3--|--3--3--------------6--6--|
--------------------------|--------------------------|


  E  E  E  E  E  E  E  E     E  E  E  E  E  E  E  E   
--------------------------|--------------------------|
--------------------------|--------------------------|
--6--x--6--x--6--x--6--x--|--7--x--7--x--7--x--7--x--|
-----x-----x-----x-----x--|-----x-----x-----x-----x--|
--6--x--6--x--6--x--6--x--|--7--x--7--x--7--x--7--x--|
--------------------------|--------------------------|


  E  E  E  E  E  E  E  E     E  E  E  E  E  E  E  E   
--------------------------|--------------------------|
--------------------------|--------------------------|
--------------------------|--------------------------|
--------3--3--2--2--------|--------6--6--5--5--------|
--0--0--------------3--3--|--3--3--------------6--6--|
--------------------------|--------------------------|


  E  E  E  E  E  E  E  E     E  E  E  E  E  E  E  E   
--------------------------|--------------------------|
--------------------------|--------------------------|
--6--x--6--x--6--x--6--x--|--7--x--7--x--7--x--7--x--|
-----x-----x-----x-----x--|-----x-----x-----x-----x--|
--6--x--6--x--6--x--6--x--|--7--x--7--x--7--x--7--x--|
--------------------------|--------------------------|


  E  E  E  E  E  E  E  E     E  E  E  E  E  E  E  E   
--------------------------|--------------------------|
--------------------------|--------------------------|
--------------------------|--------------------------|
--------3--3--2--2--------|--------6--6--5--5--------|
--0--0--------------3--3--|--3--3--------------6--6--|
--------------------------|--------------------------|


  E  E  E  E  E  E  E  E     E  E  E  E  E  E  E  E   
--------------------------|--------------------------|
--------------------------|--------------------------|
--6--x--6--x--6--x--6--x--|--7--x--7--x--7--x--7--x--|
-----x-----x-----x-----x--|-----x-----x-----x-----x--|
--6--x--6--x--6--x--6--x--|--7--x--7--x--7--x--7--x--|
--------------------------|--------------------------|


    E  E  E  E  E  E  E  E     E  E  E  E  E  E  E  E   6x  W                 
|---------------------------|---------------------------||-------------------|
|---------------------------|---------------------------||-------------------|
|*--------5--5--4--4--------|--------8--8--7--7--------*||--0----------------|
|*--0--0--3--3--2--2--3--3--|--3--3--6--6--5--5--6--6--*||--0----------------|
|---0--0--------------3--3--|--3--3--------------6--6---||--0----------------|
|---------------------------|---------------------------||-------------------|


  W                   W                   W                   W                 
-------------------|-------------------|-------------------|-------------------|
-------------------|-------------------|-------------------|-------------------|
--3----------------|--0----------------|--3----------------|--0----------------|
--3----------------|--0----------------|--3----------------|--0----------------|
--3----------------|--0----------------|--3----------------|--0----------------|
-------------------|-------------------|-------------------|-------------------|


  W                   W                   W                 
-------------------|-------------------|-------------------|
-------------------|-------------------|-------------------|
--3----------------|--0----------------|--3----------------|
--3----------------|--0----------------|--3----------------|
--3----------------|--0----------------|--3----------------|
-------------------|-------------------|-------------------|


  Q    Q    Q    Q       Q    Q    Q    Q       E   E  E   E  E   E  E   E   
----------------------|----------------------|------------------------------|
----------------------|----------------------|------------------------------|
-------5----4---------|-------8----7---------|--6------6------6------6------|
--0----3----2----3----|--3----6----5----6----|------------------------------|
--0--------------3----|--3--------------6----|--6p--0--6p--0--6p--0--6p--0--|
----------------------|----------------------|------------------------------|


  E   E  E   E  E   E  E   E     E  E  E  E  E  E  E  E   
------------------------------|--------------------------|
------------------------------|--------------------------|
--7------7------7------7------|--------------------------|
------------------------------|--------3--3--2--2--------|
--7p--0--7p--0--7p--0--7p--0--|--0--0--------------3--3--|
------------------------------|--------------------------|


  E  E  E  E  E  E  E  E     E   E  E   E  E   E  E   E   
--------------------------|------------------------------|
--------------------------|------------------------------|
--------------------------|--6------6------6------6------|
--------6--6--5--5--------|------------------------------|
--3--3--------------6--6--|--6p--0--6p--0--6p--0--6p--0--|
--------------------------|------------------------------|


  E   E  E   E  E   E  E   E     E  E  E  E  E  E  E  E   
------------------------------|--------------------------|
------------------------------|--------------------------|
--7------7------7------7------|--------------------------|
------------------------------|--------3--3--2--2--------|
--7p--0--7p--0--7p--0--7p--0--|--0--0--------------3--3--|
------------------------------|--------------------------|


  E  E  E  E  E  E  E  E     E   E  E   E  E   E  E   E   
--------------------------|------------------------------|
--------------------------|------------------------------|
--------------------------|--6------6------6------6------|
--------6--6--5--5--------|------------------------------|
--3--3--------------6--6--|--6p--0--6p--0--6p--0--6p--0--|
--------------------------|------------------------------|


  E   E  E   E  E   E  E   E     E  E  E  E  E  E  E  E   
------------------------------|--------------------------|
------------------------------|--------------------------|
--7------7------7------7------|--------------------------|
------------------------------|--------3--3--2--2--------|
--7p--0--7p--0--7p--0--7p--0--|--0--0--------------3--3--|
------------------------------|--------------------------|


  E  E  E  E  E  E  E  E     E   E  E   E  E   E  E   E   
--------------------------|------------------------------|
--------------------------|------------------------------|
--------------------------|--6------6------6------6------|
--------6--6--5--5--------|------------------------------|
--3--3--------------6--6--|--6p--0--6p--0--6p--0--6p--0--|
--------------------------|------------------------------|


  E   E  E   E  E   E  E   E     E   E  E  E  E  E  E  E                
------------------------------|---------------------------|-----|-----||
------------------------------|---------------------------|-----|-----||
--7------7------7------7------|--7S-----------------------|-----|-----||
------------------------------|--0------------------------|-----|-----||
--7p--0--7p--0--7p--0--7p--0--|--7S-----------------------|-----|-----||
------------------------------|---------------------------|-----|-----||

Tap to rate this tab
# A B C D E F G H I J K L M N O P Q R S T U V W X Y Z