Song name
# A B C D E F G H I J K L M N O P Q R S T U V W X Y Z

Sonic Youth - Eyeliner tab

Eyeliner By Sonic Youth
CD: Rather Ripped
Tabed By Damion Eltgroth
AIM: DazedGuitar42o Email: Damion88@sbcglobal.net

Im not to sure on this but it's how I play it and it sounds good to me.
I cant really tell what both guitars are doing so this is just a combination of them both.
The Strumming is not percise so just jam out to the song while browsing through the tab 
first to figure it out
You can copy this tab and send it to another site if you wish but please give me credit.

Tuning: DD#A#D#GG

G |-4-444-4/6-666--------------4-444-4/6-666-------------|
G |-4-444-4/6-666--------------4-444-4/6-666-------------|
D#|-4-444-4/6-666-0-00-000-00--4-444-4/6-666-0-00-000-00-|
A#|-4-444-4/6-666-0-00-000-00--4-444-4/6-666-0-00-000-00-|
D#|-4-444-4/6-666-7-77-777-77--4-444-4/6-666-7-77-777-77-|
D |---------------7-77-777-77----------------7-77-777-77-|


G |-10/11-11-11-11-11/12-12-12-12---------------------10/11-11-11-11-11/12-12-12-12---------------------|
G |-10/11-11-11-11-11/12-12-12-12-0--0-0--0-0-0--0-0--10/11-11-11-11-11/12-12-12-12-0--0-0--0-0-0--0-0--|
D#|-10/11-11-11-11-11/12-12-12-12-13-1313-131313-1313-10/11-11-11-11-11/12-12-12-12-13-1313-131313-1313-|
A#|-10/11-11-11-11-11/12-12-12-12-13-1313-131313-1313-10/11-11-11-11-11/12-12-12-12-13-1313-131313-1313-|
D#|-10/11-11-11-11-11/12-12-12-12-13-1313-131313-1313-10/11-11-11-11-11/12-12-12-12-13-1313-131313-1313-|
D |-------------------------------13-1313-131313-1313-------------------------------13-1313-131313-1313-|


G |-4-444-4/6-666--------------4-444-4/6-666-------------|
G |-4-444-4/6-666--------------4-444-4/6-666-------------|
D#|-4-444-4/6-666-0-00-000-00--4-444-4/6-666-0-00-000-00-|
A#|-4-444-4/6-666-0-00-000-00--4-444-4/6-666-0-00-000-00-|
D#|-4-444-4/6-666-7-77-777-77--4-444-4/6-666-7-77-777-77-|
D |---------------7-77-777-77----------------7-77-777-77-|


G |-10/11-11-11-11-11/12-12-12-12---------------------10/11-11-11-11-11/12-12-12-12---------------------|
G |-10/11-11-11-11-11/12-12-12-12-0--0-0--0-0-0--0-0--10/11-11-11-11-11/12-12-12-12-0--0-0--0-0-0--0-0--|
D#|-10/11-11-11-11-11/12-12-12-12-13-1313-131313-1313-10/11-11-11-11-11/12-12-12-12-13-1313-131313-1313-|
A#|-10/11-11-11-11-11/12-12-12-12-13-1313-131313-1313-10/11-11-11-11-11/12-12-12-12-13-1313-131313-1313-|
D#|-10/11-11-11-11-11/12-12-12-12-13-1313-131313-1313-10/11-11-11-11-11/12-12-12-12-13-1313-131313-1313-|
D |-------------------------------13-1313-131313-1313-------------------------------13-1313-131313-1313-|

G |-4-444-4/6-666--------------4-444-4/6-666-------------|
G |-4-444-4/6-666--------------4-444-4/6-666-------------|
D#|-4-444-4/6-666-0-00-000-00--4-444-4/6-666-0-00-000-00-|
A#|-4-444-4/6-666-0-00-000-00--4-444-4/6-666-0-00-000-00-|
D#|-4-444-4/6-666-7-77-777-77--4-444-4/6-666-7-77-777-77-|
D |---------------7-77-777-77----------------7-77-777-77-|


G |-10/11-11-11-11-11/12-12-12-12---------------------10/11-11-11-11-11/12-12-12-12---------------------|
G |-10/11-11-11-11-11/12-12-12-12-0--0-0--0-0-0--0-0--10/11-11-11-11-11/12-12-12-12-0--0-0--0-0-0--0-0--|
D#|-10/11-11-11-11-11/12-12-12-12-13-1313-131313-1313-10/11-11-11-11-11/12-12-12-12-13-1313-131313-1313-|
A#|-10/11-11-11-11-11/12-12-12-12-13-1313-131313-1313-10/11-11-11-11-11/12-12-12-12-13-1313-131313-1313-|
D#|-10/11-11-11-11-11/12-12-12-12-13-1313-131313-1313-10/11-11-11-11-11/12-12-12-12-13-1313-131313-1313-|
D |-------------------------------13-1313-131313-1313-------------------------------13-1313-131313-1313-|


G |-4-444-4/6-666-------------4-444-4/6-666-------------4-444-4/6-666-------------4-444-4/6-666-------------|
G |-4-444-4/6-666-------------4-444-4/6-666-------------4-444-4/6-666-------------4-444-4/6-666-------------|
D#|-4-444-4/6-666-0-00-000-00-4-444-4/6-666-0-00-000-00-4-444-4/6-666-0-00-000-00-4-444-4/6-666-0-00-000-00-|
A#|-4-444-4/6-666-0-00-000-00-4-444-4/6-666-0-00-000-00-4-444-4/6-666-0-00-000-00-4-444-4/6-666-0-00-000-00-|
D#|-4-444-4/6-666-7-77-777-77-4-444-4/6-666-7-77-777-77-4-444-4/6-666-7-77-777-77-4-444-4/6-666-7-77-777-77-|
D |---------------7-77-777-77---------------7-77-777-77---------------7-77-777-77---------------7-77-777-77-|


G |-10/11-11-11-11-11/12-12-12-12---------------------10/11-11-11-11-11/12-12-12-12---------------------|----|
G |-10/11-11-11-11-11/12-12-12-12--0--0-0--0-0-0--0-0-10/11-11-11-11-11/12-12-12-12--0--0-0--0-0-0--0-0-|--0-|

Strumming
A#|-10/11-11-11-11-11/12-12-12-12-13-1313-131313-1313-10/11-11-11-11-11/12-12-12-12-13-1313-131313-1313-|-13-|
D#|-10/11-11-11-11-11/12-12-12-12-13-1313-131313-1313-10/11-11-11-11-11/12-12-12-12-13-1313-131313-1313-|-13-|
D |-------------------------------13-1313-131313-1313-------------------------------13-1313-131313-1313-|-13-|


G |-1-2-3-4-1-2-3-4-|-6-7-8-9-6-7-8-9-|-1-2-3-4-1-2-3-4-|-6-7-8-9-6-7-8-9-|-1-2-3-4-1-2-3-4-|-6-7-8-9-6-7-8-9-|
G |-1-2-3-4-1-2-3-4-|-6-7-8-9-6-7-8-9-|-1-2-3-4-1-2-3-4-|-6-7-8-9-6-7-8-9-|-1-2-3-4-1-2-3-4-|-6-7-8-9-6-7-8-9-|
D#|-1-2-3-4-1-2-3-4-|-6-7-8-9-6-7-8-9-|-1-2-3-4-1-2-3-4-|-6-7-8-9-6-7-8-9-|-1-2-3-4-1-2-3-4-|-6-7-8-9-6-7-8-9-|
A#|-1-2-3-4-1-2-3-4-|-6-7-8-9-6-7-8-9-|-1-2-3-4-1-2-3-4-|-6-7-8-9-6-7-8-9-|-1-2-3-4-1-2-3-4-|-6-7-8-9-6-7-8-9-|
D#|-1-2-3-4-1-2-3-4-|-6-7-8-9-6-7-8-9-|-1-2-3-4-1-2-3-4-|-6-7-8-9-6-7-8-9-|-1-2-3-4-1-2-3-4-|-6-7-8-9-6-7-8-9-|
D |-----------------|-----------------|-----------------|-----------------|-----------------|-----------------|


G |-11-9-11-12-11-9-11-11-|
G |-11-9-11-12-11-9-11-11-|
D#|-11-9-11-12-11-9-11-11-|
A#|-11-9-11-12-11-9-11-11-|Play that a whole lot of times, about 30
D#|-11-9-11-12-11-9-11-11-|
D |--0-0--0--0--0-0--0--0-|


G |-4-444-4/6-666-------------4-444-4/6-666-------------4-444-4/6-666-------------4-444-4/6-666-------------|
G |-4-444-4/6-666-------------4-444-4/6-666-------------4-444-4/6-666-------------4-444-4/6-666-------------|
D#|-4-444-4/6-666-0-00-000-00-4-444-4/6-666-0-00-000-00-4-444-4/6-666-0-00-000-00-4-444-4/6-666-0-00-000-00-|
A#|-4-444-4/6-666-0-00-000-00-4-444-4/6-666-0-00-000-00-4-444-4/6-666-0-00-000-00-4-444-4/6-666-0-00-000-00-|
D#|-4-444-4/6-666-7-77-777-77-4-444-4/6-666-7-77-777-77-4-444-4/6-666-7-77-777-77-4-444-4/6-666-7-77-777-77-|
D |---------------7-77-777-77---------------7-77-777-77---------------7-77-777-77---------------7-77-777-77-|


G |-10/11-11-11-11-11/12-12-12-12---------------------10/11-11-11-11-11/12-12-12-12---------------------|
G |-10/11-11-11-11-11/12-12-12-12--0--0-0--0-0-0--0-0-10/11-11-11-11-11/12-12-12-12--0--0-0--0-0-0--0-0-|
D#|-10/11-11-11-11-11/12-12-12-12-13-1313-131313-1313-10/11-11-11-11-11/12-12-12-12-13-1313-131313-1313-|
A#|-10/11-11-11-11-11/12-12-12-12-13-1313-131313-1313-10/11-11-11-11-11/12-12-12-12-13-1313-131313-1313-|
D#|-10/11-11-11-11-11/12-12-12-12-13-1313-131313-1313-10/11-11-11-11-11/12-12-12-12-13-1313-131313-1313-|
D |-------------------------------13-1313-131313-1313-------------------------------13-1313-131313-1313-|


G |-4-444-4/6-666--------------4-444-4/6-666-------------|
G |-4-444-4/6-666--------------4-444-4/6-666-------------|
D#|-4-444-4/6-666-0-00-000-00--4-444-4/6-666-0-00-000-00-|
A#|-4-444-4/6-666-0-00-000-00--4-444-4/6-666-0-00-000-00-|
D#|-4-444-4/6-666-7-77-777-77--4-444-4/6-666-7-77-777-77-|
D |---------------7-77-777-77----------------7-77-777-77-|


G |-10/11-11-11-11-11/12-12-12-12---------------------10/11-11-11-11-11/12-12-12-12---------------------|
G |-10/11-11-11-11-11/12-12-12-12-0--0-0--0-0-0--0-0--10/11-11-11-11-11/12-12-12-12-0--0-0--0-0-0--0-0--|
D#|-10/11-11-11-11-11/12-12-12-12-13-1313-131313-1313-10/11-11-11-11-11/12-12-12-12-13-1313-131313-1313-|
A#|-10/11-11-11-11-11/12-12-12-12-13-1313-131313-1313-10/11-11-11-11-11/12-12-12-12-13-1313-131313-1313-|
D#|-10/11-11-11-11-11/12-12-12-12-13-1313-131313-1313-10/11-11-11-11-11/12-12-12-12-13-1313-131313-1313-|
D |-------------------------------13-1313-131313-1313-------------------------------13-1313-131313-1313-|


G |----|
G |--0-|
D#|-13-|Keep Strumming Till The End.
A#|-13-|
D#|-13-|
D |-13-|
Tap to rate this tab
# A B C D E F G H I J K L M N O P Q R S T U V W X Y Z