Song name
# A B C D E F G H I J K L M N O P Q R S T U V W X Y Z

Sonic Youth - Shoot tab

-------------------------------------------------------------------------------
			     SHOOT - Sonic Youth
-------------------------------------------------------------------------------
Tabbed by:Luis Gustavo Hernández Collado
Email:ltavo_87@hotmail.com

Tuning:F#F#F#F#Be

e |-regular high e-|
B |-regular B------|
F#|-high F#--------|
F#|-high F#--------| (one octave higher than previous F#)
F#|-low F#---------|
F#|-low F#---------|

Intro
e |---------------------|
B |---------------------|
F#|-(7)-(7)-(7)-(7)-(7)-|
F#|---------------------|
F#|---------------------|
F#|---------------------|

Verse 1
(Can I have some money? I'm gonna go to the store...)
e |-------------------------------|
B |-7/10-7/10---------------------|
F#|-7/10-7/10---------------------|X4
F#|-------------------------------|
F#|-----------10-10-10-10-6-6-6-6-|
F#|-----------10-10-10-10-6-6-6-6-|

Chorus 1
(Since we've been together you've been good to me...)
e |----------------------------------------------------|
B |----------------------------------------------------|
F#|----------------------------------------------------|X2
F#|-12-12-12-12-15-15-15-15-12/17-17-17-17-10-10-10-10-|
F#|-12-12-12-12-15-15-15-15-12/17-17-17-17-10-10-10-10-|
F#|-0--0--0--0--0--0--0--0--0--0--0--0--0--0--0--0--0--|

e |-----|
B |-----|
F#|-12r-|
F#|-12r-|
F#|-12r-|
F#|-0-r-|
r=let ring

Verse 2
(Can I have the car keys? I'm gonna go for a ride...)
e |-------------------------------|
B |-7/10-7/10---------------------|
F#|-7/10-7/10---------------------|X4
F#|-------------------------------|
F#|-----------10-10-10-10-6-6-6-6-|
F#|-----------10-10-10-10-6-6-6-6-|

Chorus 2
(I won't be asking your permission to leave...)
e |----------------------------------------------------|
B |----------------------------------------------------|
F#|----------------------------------------------------|X4
F#|-12-12-12-12-15-15-15-15-12/17-17-17-17-10-10-10-10-|
F#|-12-12-12-12-15-15-15-15-12/17-17-17-17-10-10-10-10-|
F#|-0--0--0--0--0--0--0--0--0--0--0--0--0--0--0--0--0--|

e |-----|
B |-----|
F#|-12r-|
F#|-12r-|
F#|-12r-|
F#|-0-r-|
r=let ring

Interlude
(Ssssssh, visualize...)
e |-----|
B |-----|
F#|-12r-|
F#|-12r-|
F#|-12r-|
F#|-0-r-|
r=let ring

(Shoot! shoot...)
e |-18-18-18-18-18-18-18-18-|
B |-x--x--x--x--x--x--x--x--|
F#|-16-16-16-16-17-17-17-17-|X4
F#|-16-16-16-16-17-17-17-17-|
F#|-16-16-16-16-17-17-17-17-|
F#|-0--0--0--0--0--0--0--0--|

Verse 3
(Can I have my lipstick? that was such a surprise...)
e |-------------------------------|
B |-7/10-7/10---------------------|
F#|-7/10-7/10---------------------|X4
F#|-------------------------------|
F#|-----------10-10-10-10-6-6-6-6-|
F#|-----------10-10-10-10-6-6-6-6-|

Bass Part (No Guitar)

Outro
e |-------------------------|
B |-------------------------|
F#|----4r----4r----4r----6r-|X4
F#|----4r----4r----4r----6r-|
F#|-0r----0r----0r----0r----|
F#|-0r----0r----0r----0r----|
Tap to rate this tab
# A B C D E F G H I J K L M N O P Q R S T U V W X Y Z