Song name
# A B C D E F G H I J K L M N O P Q R S T U V W X Y Z

Sonic Youth - Unmade Bed tab

Song: Unmade Bed
Artist: Sonic Youth
Album: Sonic Nurse
Source: http://www.sonicyouth.com/mustang/tab (Tabbed by FDSwayze)
Tuning: GUITAR 1 (Thurston---CGDGCD) 

NOTE: This is merely one of the three guitars heard in the song, 
check the other versions to get the other two guitars (which are, by the way
in different tunings)
        


Guitar 1:

Intro: 
D|-----0----------|(0)-------------|-----0----------|(0)-------------|
C|----0-----------|(0)-------------|----0-----------|(0)-------------|
G|---0------------|(0)-------------|---0------------|(0)-------------|
D|--5-------------|(5)-------------|--5-------------|(5)-------------|
G|-5--------------|(5)-------------|-5--------------|(5)-------------|
C|5---------------|(5)-------------|5---------------|(5)-------------|

D|-----0----------|(0)-------------|-----0----------|(0)-------------|
C|----0-----------|(0)-------------|----0-----------|(0)-------------|
G|---0------------|(0)-------------|---0------------|(0)-------------|
D|--7-------------|(7)-------------|--7-------------|(7)-------------|
G|-7--------------|(7)-------------|-7--------------|(7)-------------|
C|7---------------|(7)-------------|7---------------|(7)-------------|

D|----------------|----------------|----------------|----------------|
C|9---9-9-9-7-----|----------------|------7---9--10-|------9---------|
G|--------------9-|------9-9-7-----|7-9-------------|----------------|
D|----------------|----------------|----------------|----------------|
G|----------------|----------------|----------------|----------------|
C|----------------|----------------|----------------|----------------|

D|----------------|----------------|----------------|----------------|
C|---9------------|-----------9----|----------------|----------------|
G|10---10---9---7-|--9---10--------|7--------9b10r9-|7---------------|
D|----------------|----------------|----------------|----------------|
G|----------------|----------------|----------------|----------------|
C|----------------|----------------|----------------|----------------|

Verse:

D|----------------|----------------|----------------|
C|----------------|----------------|----------------|
G|----------------|----------------|----------------|
D|5-5-5-5-5-5-5-5-|5-5-5-5-5-5-5-5-|5-5-5-5-5-5-5-5-|
G|5-5-5-5-5-5-5-5-|5-5-5-5-5-5-5-5-|5-5-5-5-5-5-5-5-|
C|5-5-5-5-5-5-5-5-|5-5-5-5-5-5-5-5-|5-5-5-5-5-5-5-5-|


D|----------------|----------------|----------------|
C|----------------|----------------|----------------|
G|----------------|----------------|----------------|
D|5-5-5-5-5-5-5-5-|7-7-7-7-7-7-7-7-|7-7-7-7-7-7-7-7-|
G|5-5-5-5-5-5-5-5-|7-7-7-7-7-7-7-7-|7-7-7-7-7-7-7-7-|
C|5-5-5-5-5-5-5-5-|7-7-7-7-7-7-7-7-|7-7-7-7-7-7-7-7-|

D|----------------|----------------|
C|----------------|----------------|
G|----------------|----------------|
D|7-7-7-7-7-7-7-7-|7-7-7-7-7-7-7-7-|
G|7-7-7-7-7-7-7-7-|7-7-7-7-7-7-7-7-|
C|7-7-7-7-7-7-7-7-|7-7-7-7-7-7-7-7-|

Chorus:

D|----------------|----------------|----------------|
C|----------------|----------------|----------------|
G|10-10-10-10-10--|10-10-10-10-10--|10-10-10-10-10--|
D|10-10-10-10-10--|10-10-10-10-10--|10-10-10-10-10--|
G|10-10-10-10-10--|10-10-10-10-10--|10-10-10-10-10--|
C|----------------|----------------|----------------|

D|----------------|----------------|----------------|
C|----------------|----------------|----------------|
G|10-10-10-10-10--|10-10-10-10-14--|--10---7---5----|
D|10-10-10-10-10--|10-10-10-10-14--|--10---7---5----|
G|10-10-10-10-10--|10-10-10-10-14--|--10---7---5----|
C|----------------|----------------|----------------|

D|----------------|----------------|
C|----------------|----------------|
G|7---------5-7/9-|7---------------|
D|7---------5-7/9-|7---------------|
G|7---------5-7/9-|7---------------|
C|----------------|----------------|

Break Section:

D|----------------|----------------|----------------|
C|----------------|----------------|----------------|
G|----------------|<7>-<7>-<7>-<7>-|-------<7>------|
D|------------<7>-|<7>-<7>-<7>-<7>-|-----<7>---<7>--|
G|--------<7>-<7>-|<7>-<7>-<7>-<7>-|<7>-------------|
C|----------------|----------------|----------------|

D|---<7>----------|<5>-------------|----------------|
C|<7>--<7>--------|---<5>----------|----------------|
G|----------------|-------<5>------|----------------|
D|----------------|-----------<5>--|----------------|
G|----------------|----------------|<5>-------------|
C|----------------|----------------|----------------|

D|<3>-------------|----------------|----------------|
C|---<3>----------|----------------|7h9-----9---9-9-|
G|-------<3>------|----------------|----------------|
D|-----------<3>--|----------------|----------------|
G|----------------|<3>-------------|----------------|
C|----------------|----------------|----------------|

D|----------------|----------------|----------------|
C|9-7-------------|---------9-10---|7---------------|
G|--------9-7---7-|7-9-10----------|----------------|
D|----------------|----------------|----------------|
G|----------------|----------------|----------------|
C|----------------|----------------|----------------|

D|----------------|----------------|----------------|
C|7h9-------------|--------10--9-7-|9---------------|
G|---10---9-7---9-|-10-9-7---------|---------10-9---|
D|----------------|----------------|----------------|
G|----------------|----------------|----------------|
C|----------------|----------------|----------------|

D|----------------|----------------|<12>^^^^^-------|
C|----------------|------------<12>|----------------|
G|7---------------|<12>------------|---------<12>---|
D|----------------|<12>------------|----------------|
G|----------------|<12>------------|----------------|
C|----------------|<12>------------|----------------|

D|-------------<7>|----------------|<5>-------------|
C|<7>-------------|----------------|----<5>---------|
G|-----<7>--------|----------------|--------<5>-----|
D|---------<7>----|----------------|------------<5>-|
G|----------------|----------------|----------------|
C|----------------|----------------|----------------|

D|----------------|<3>-------------|----------------|
C|-----------<5>--|---<3>----------|----------------|
G|----------------|-------<3>------|----------------|
D|----------------|-----------<3>--|----------------|
G|<5>-------------|----------------|<3>^^^^^^^^^^^--|
C|----------------|----------------|----------------|

D|12h15-15--12-15-|17---15----17---|17/19---19---19b|
C|----------------|----------------|----------------|
G|----------------|----------------|----------------|
D|----------------|----------------|----------------|
G|----------------|----------------|----------------|
C|----------------|----------------|----------------|

D|21^^^^^^^^^^^^--|----------------|----------------|
C|----------------|----------------|----------------|
G|----------------|----------------|----------------|
D|----------------|----------------|----------------|
G|----------------|x/--------------|x/--------------|
C|----------------|x/--------------|x/--------------|


D|----------------|----------------|----------------|
C|----------------|----------------|----------------|
G|----------------|----------------|2h5-5-5-5---5-5-|
D|----------------|----------------|----------------|
G|x\-------------/|10b13~~~~~~~r10-|----------------|
C|x\--------------|----------------|----------------|

D|----------------|----------------|----------------|
C|----------------|----------------|----------------|
G|5-2-------------|--------------2^|^^^^^^^^^^/-\---|
D|------5---3~~~--|0h3-3-3-3-0-----|----------------|
G|----------------|----------------|----------------|
C|----------------|----------------|----------------|

D|----------------|----------------|----------------|
C|--5---5---5---5-|--5^^^^^^^^^^^--|----------------|
G|--5---5---5---5-|--5^^^^^^^^^^^--|--------------2^|
D|----------------|----------------|0h3-3-3-3-0-----|
G|----------------|----------------|----------------|
C|----------------|----------------|----------------|

D|----------------|----------------|----------------|
C|----------------|----------------|----------------|
G|^^^^^^^^^^/-\---|--------------2-|----------------|
D|----------------|0h3---3-3-0-----|--3-------------|
G|----------------|----------------|----------------|
C|----------------|----------------|----------------|

D|----------------|----------------|----------------|
C|----------------|----------------|----------------|
G|--------------2-|----------------|----------------|
D|0h3---3-3-0-----|----------------|0h3---3-3-0-----|
G|----------------|----------------|--------------2-|
C|----------------|----------------|----------------|

D|----------------|----------------|----------------|
C|----------------|----------------|----------------|
G|----------------|----------------|----------------|
D|----------------|----------------|----------------|
G|----------------|----------------|----------------|
C|--4-5-4-5-4-2-0-|2~~~~~~~--0-2-0-|2~~~~~~~~~~~~~--|
Tap to rate this tab
# A B C D E F G H I J K L M N O P Q R S T U V W X Y Z