Song name
# A B C D E F G H I J K L M N O P Q R S T U V W X Y Z

Sonic Youth - Winners Blues tab

Song: Winner's Blues
Artist: Sonic Youth
Source: http://www.sonicyouth.com/mustang/tab/
        tabbed by chris lawrence (mustang@islandnet.com)
TUning: EEBEG#B (Acoustic)

To tune: Tune the high E down to the open B string. Then tune the B
string to the 1st fret of the G string. Tune the G string to the 2nd
fret of the D string, tune the D string to the 2nd fret of the A string,
tune the A string to low E, and leave the E the same.

In this song, he frets notes going up one string, and lets all the other
strings ring out, with random picking. So I won't show how to pick it,
etc. because it is pretty random.

So, basically he picks low notes all the way through, but the high notes
are the melody, and are the most noticeable.


B-----0--0--0--0---| Repeat a few times
G#----3--3--5--0---|
E--0--0--0--0--0---|
B--0--0--0--0--0---|
E--0--0-----0--0---|
E--0---------------|


"The time will come and you will see a door"
B----0--0--0-----0---0-0-0-0-0-0--0-0---|
G#---3--3--5-----5---8-8-8-8-7-7--3-5---|
E-0--0--0--0-----0---0-0-0-0-0-0--0-0---|
B-0--0--0--0-----0---0-0-0-0-0-0--0-0---|
E-0--0--0--0-----0---0-0-0-0-0-0--0-0---|
E-0--0--0--0-----0---0-0-0-0-0-0--0-0---|

B--0-0-0-0--0-0--0-0-0-0--0-0-0-0-----|
G#-0-0-0-0--0-0--0-0-0-0--0-0-0-0-----|
E--4-4-4-4--2-0--0-0-0-0--2-2-2-4-----|
B--0-0-0-0--0-0--0-0-0-0--0-0-0-0-----|
E--0-0-0-0--0-0--0-0-0-0--0-0-0-0-----|
E--0-0-0-0--0-0--0-0-0-0--0-0-0-0-----|

"And its out and its not what you thought it was about" part:

B--0-0-0---0-0-0-0-0-0-0----0-0-0---0-0-0-0-0-0----| Repeat
G#-3-3-5---5-5-5-3-3-3-0----3-3-5---8-8-8-8-7-7----|
E--0-0-0---0-0-0-0-0-0-0----0-0-0---0-0-0-0-0-0----|
B--0-0-0---0-0-0-0-0-0-0----0-0-0---0-0-0-0-0-0----|
E--0-0-0---0-0-0-0-0-0-0----0-0-0---0-0-0-0-0-0----|
E--0-0-0---0-0-0-0-0-0-0----0-0-0---0-0-0-0-0-0----|

That's about it. It may not look right, because I haven't figured out
how to show rhythm in tabs, but those are the right chords. So have
fun trying to figure it all out.

------------------------------------------------
THE SONIC YOUTH GUITAR/BASS TABLATURE ARCHIVE:
http://www.islandnet.com/~mustang/tab/index.html
------------------------------------------------
Tap to rate this tab
# A B C D E F G H I J K L M N O P Q R S T U V W X Y Z