Song name
# A B C D E F G H I J K L M N O P Q R S T U V W X Y Z

Sonic Youth - Purr tab

-----------------------------Sonic youth------------------------------------|
--------------------------------Purr----------------------------------------|

tabbed by waxhead
email: waxhead_1@hotmail.com
So heres the intro for purr in standard tuning, its a good start for those who want to 
this song. Remember with youth, aim for the groove rather than playing everything exactly.

E----------------------------------------9--9--9--9--9--9--7-------|
B----------------------------------------10-10-10-10-10-10-8-------|
G-----5---5---5---5-7-5-5bh~-5br-5-------9--9--9--9--9--9--7-------|
D-----5---5---5---5-7-5-5bh~-5br-5-7-0-----------------------------|
A-0-0---0---0---0-----0------------7-------------------------------|
E------------------------------------------------------------------|

E------------------|
B------------------|
G-5-7-5-7bh7-7-x---|
D-5-7-5------7-x---|
A------------------|
E------------------|

bh: bend and hold
br: release bend
~:  vibrato
x:  muted strings, no defined notes.
Tap to rate this tab
# A B C D E F G H I J K L M N O P Q R S T U V W X Y Z