Guitaretab - guitar tabs
Song name
# A B C D E F G H I J K L M N O P Q R S T U V W X Y Z

Sonic Youth - Tunic tab

SONIC YOUTH - Tunic

Song:   Tunic
Artist: Sonic Youth
Album:  Goo


Guitar 1=EGDGED  (Thurston, right)
Guitar 2=GGDDGG  (Lee, left)



BEGINNING FEEDBACK
  Gtr 1 (volume swell)
D|--------------------------------|--------------------------------|
E|--------------------------------|--------------------------------|
G|0>>>>>>>>>>>>>>>>>>>>>>>>>>>>>>>|>>>>>>>>>>>>>>>>>>>>>>>>>>>>>>>>|
D|0>>>>>>>>>>>>>>>>>>>>>>>>>>>>>>>|>>>>>>>>>>>>>>>>>>>>>>>>>>>>>>>>|
G|0>>>>>>>>>>>>>>>>>>>>>>>>>>>>>>>|>>>>>>>>>>>>>>>>>>>>>>>>>>>>>>>>|
E|--------------------------------|--------------------------------|
 |
 |Gtr 2 (volume swell)
G|--------------------------------|--------------------------------|
G|--------------------------------|--------------------------------|
D|0>>>>>>>>>>>>>>>>>>>>>>>>>>>>>>>|>>>>>>>>>>>>>>>>>>>>>>>>>>>>>>>>|
D|0>>>>>>>>>>>>>>>>>>>>>>>>>>>>>>>|>>>>>>>>>>>>>>>>>>>>>>>>>>>>>>>>|
G|0>>>>>>>>>>>>>>>>>>>>>>>>>>>>>>>|>>>>>>>>>>>>>>>>>>>>>>>>>>>>>>>>|
G|0>>>>>>>>>>>>>>>>>>>>>>>>>>>>>>>|>>>>>>>>>>>>>>>>>>>>>>>>>>>>>>>>|

INTRO RIFF: repeat x2
  Gtr 1
D|0---0---0---0---0---0---0---0---|0---0---0---0---0---0---0---0---|
E|10--10--10--10--10--10--10--10--|10--10--10--10--10--10--10--10--|
G|7---7---7---7---7---7---7---7---|7---7---7---7---7---7---7---7---|
D|--------------------------------|--------------------------------|
G|--------------------------------|--------------------------------|
E|--------------------------------|--------------------------------|
 |
 |Gtr 2
G|--------------------------------|--------------------------------|
G|--------------------------------|--------------------------------|
D|12--12--12--12--12--12--12--12--|12--12--12--12--12--12--12--12--|
D|12--12--12--12--12--12--12--12--|12--12--12--12--12--12--12--12--|
G|--------------------------------|--------------------------------|
G|--------------------------------|--------------------------------|


  Gtr 1
D|0---0---0---0---0---0---0---0---|0---0---0---0---0---0---0---0---|
E|9---9---9---9---9---9---9---9---|9---9---9---9---9---9---9---9---|
G|6---6---6---6---6---6---6---6---|6---6---6---6---6---6---6---6---|
D|--------------------------------|--------------------------------|
G|--------------------------------|--------------------------------|
E|--------------------------------|--------------------------------|
 |
 |Gtr 2
G|--------------------------------|--------------------------------|
G|--------------------------------|--------------------------------|
D|12--12--12--12--12--12--12--12--|12--12--12--12--12--12--12--12--|
D|11--11--11--11--11--11--11--11--|11--11--11--11--11--11--11--11--|
G|--------------------------------|--------------------------------|
G|--------------------------------|--------------------------------|

BREAK RIFF: repeat x4
  Gtr 1
D|--------------------------------|--------------------------------|
E|--------------------------------|--------------------------------|
G|0---0---0---0---0---0---0---0---|0---0---0---0---0---0---0---0---|
D|0---0---0---0---0---0---0---0---|0---0---0---0---0---0---0---0---|
G|0---0---0---0---0---0---0---0---|0---0---0---0---0---0---0---0---|
E|--------------------------------|--------------------------------|
 |
 |Gtr 2
G|----0---------------------------|----0---------------------------|
G|----0---------------------------|----0---------------------------|
D|----0---------------------------|----0---------------------------|
D|0---0---0---0---0---0---0---0---|0---0---0---0---0---0---0---0---|
G|0---0---0---0---0---0---0---0---|0---0---0---0---0---0---0---0---|
G|0---0---0---0---0---0---0---0---|0---0---0---0---0---0---0---0---|

VERSE LEAD-IN
  Gtr 1
D|--------------------------------|--------------------------------|
E|6---6---6---6---6---6-------6---|----6---6-------6---6---6---6---|
G|0---0---0---0---0---0-------0---|----0---0-------0---0---0---0---|
D|0---0---0---0---0---0-------0---|----0---0-------0---0---0---0---|
G|0---0---0---0---0---0-------0---|----0---0-------0---0---0---0---|
E|--------------------------------|--------------------------------|
 |
 |Gtr 2
G|-----0--------------------------|--------------------------------|
G|----0---------------------------|--------------------------------|
D|---8----------------------------|--------------------------------|
D|--8-----------------------------|--------------------------------|
G|-0------------------------------|--------------------------------|
G|0-------------------------------|--------------------------------|


  Gtr 1
D|--------------------------------|--------------------------------|
E|8---8---8---8---8---8-------8---|----8---8-------8---8---8---8---|
G|0---0---0---0---0---0-------0---|----0---0-------0---0---0---0---|
D|8---8---8---8---8---8-------8---|----8---8-------8---8---8---8---|
G|0---0---0---0---0---0-------0---|----0---0-------0---0---0---0---|
E|--------------------------------|--------------------------------|
 |
 |Gtr 2
G|-----10-------------------------|--------------------------------|
G|----10--------------------------|--------------------------------|
D|---10---------------------------|--------------------------------|
D|--10----------------------------|--------------------------------|
G|-0------------------------------|--------------------------------|
G|0-------------------------------|--------------------------------|


  Gtr 1
D|--------------------------------|--------------------------------|
E|5---5---5---5---5---5-------5---|----5---5-------5---5---5---5---|
G|0---0---0---0---0---0-------0---|----0---0-------0---0---0---0---|
D|7---7---7---7---7---7-------7---|----7---7-------7---7---7---7---|
G|0---0---0---0---0---0-------0---|----0---0-------0---0---0---0---|
E|--------------------------------|--------------------------------|
 |
 |Gtr 2
G|-----5--------------------------|--------------------------------|
G|----5---------------------------|--------------------------------|
D|---7----------------------------|--------------------------------|
D|--7-----------------------------|--------------------------------|
G|-0------------------------------|--------------------------------|
G|0-------------------------------|--------------------------------|


  Gtr 1
D|--------------------------------|--------------------------------|
E|6---6---6---6---6---6-------6---|----6---6-------6---6---6---6---|
G|0---0---0---0---0---0-------0---|----0---0-------0---0---0---0---|
D|8---8---8---8---8---8-------8---|----8---8-------8---8---8---8---|
G|0---0---0---0---0---0-------0---|----0---0-------0---0---0---0---|
E|--------------------------------|--------------------------------|
 |
 |Gtr 2
G|-----0----------0-0-0-0-0---0---|0-------0-----------------------|
G|----0-----------0-0-0-0-0---0---|0-------0-----------------------|
D|---12---------------------------|--------------------------------|
D|--12----------------------------|--------------------------------|
G|-0------------------------------|--------------------------------|
G|0-------------------------------|--------------------------------|


  Gtr 1
D|--------------------------------|--------------------------------|
E|6---6---6---6---6---6-------6---|----6---6-------6---6---6---6---|
G|0---0---0---0---0---0-------0---|----0---0-------0---0---0---0---|
D|0---0---0---0---0---0-------0---|----0---0-------0---0---0---0---|
G|0---0---0---0---0---0-------0---|----0---0-------0---0---0---0---|
E|--------------------------------|--------------------------------|
 |
 |Gtr 2
G|-----12-------------------------|----\----------/----------------|
G|----12--------------------------|-----\--------/-----------------|
D|---12---------------------------|------\------/------------------|
D|--12----------------------------|-------\----/-------------------|
G|-0------------------------------|--------\--/--------------------|
G|0-------------------------------|---------\/---------------------|


  Gtr 1
D|--------------------------------|--------------------------------|
E|8---8---8---8---8---8-------8---|----8---8-------8---8---8---8---|
G|0---0---0---0---0---0-------0---|----0---0-------0---0---0---0---|
D|8---8---8---8---8---8-------8---|----8---8-------8---8---8---8---|
G|0---0---0---0---0---0-------0---|----0---0-------0---0---0---0---|
E|--------------------------------|--------------------------------|
 |
 |Gtr 2
G|-----10-------------------------|----\----------/----------------|
G|----10--------------------------|-----\--------/-----------------|
D|---10---------------------------|------\------/------------------|
D|--10----------------------------|-------\----/-------------------|
G|-0------------------------------|--------\--/--------------------|
G|0-------------------------------|---------\/---------------------|


  Gtr 1
D|--------------------------------|--------------------------------|
E|5---5---5---5---5---5-------5---|----5---5-------5---5---5---5---|
G|0---0---0---0---0---0-------0---|----0---0-------0---0---0---0---|
D|7---7---7---7---7---7-------7---|----7---7-------7---7---7---7---|
G|0---0---0---0---0---0-------0---|----0---0-------0---0---0---0---|
E|--------------------------------|--------------------------------|
 |
 |Gtr 2
G|-----5--------------------------|----\----------/----------------|
G|----5---------------------------|-----\--------/-----------------|
D|---7----------------------------|------\------/------------------|
D|--7-----------------------------|-------\----/-------------------|
G|-0------------------------------|--------\--/--------------------|
G|0-------------------------------|---------\/---------------------|


  Gtr 1
D|--------------------------------|--------------------------------|
E|6---6---6---6---6---6-------6---|----6---6-------6---6---6---6---|
G|0---0---0---0---0---0-------0---|----0---0-------0---0---0---0---|
D|8---8---8---8---8---8-------8---|----8---8-------8---8---8---8---|
G|0---0---0---0---0---0-------0---|----0---0-------0---0---0---0---|
E|--------------------------------|--------------------------------|
 |
 |Gtr 2
G|-----0----------0-0-0-0-0---0---|0-------0-----------------------|
G|----0-----------0-0-0-0-0---0---|0-------0-----------------------|
D|---12---------------------------|--------------------------------|
D|--12----------------------------|--------------------------------|
G|-0------------------------------|--------------------------------|
G|0-------------------------------|--------------------------------|

1ST VERSE: repeat x2
  Gtr 1
D|--------------------------------|--------------------------------|
E|6---6---6---6---6---6-------6---|----6---6-------6---6---6---6---|
G|0---0---0---0---0---0-------0---|----0---0-------0---0---0---0---|
D|0---0---0---0---0---0-------0---|----0---0-------0---0---0---0---|
G|0---0---0---0---0---0-------0---|----0---0-------0---0---0---0---|
E|--------------------------------|--------------------------------|
 |
 |Gtr 2
G|12------12--12--12------14------|----14--14--14--12--12----------|
G|12------12--12--12------14------|----14--14--14--12--12----------|
D|12------12--12--12------12------|----12--12--12--12--12----------|
D|12------12--12--12------12------|----12--12--12--12--12----------|
G|0-------0-----------------------|--------------------------------|
G|0-------0-----------------------|--------------------------------|


  Gtr 1
D|--------------------------------|--------------------------------|
E|8---8---8---8---8---8-------8---|----8---8-------8---8---8---8---|
G|0---0---0---0---0---0-------0---|----0---0-------0---0---0---0---|
D|8---8---8---8---8---8-------8---|----8---8-------8---8---8---8---|
G|0---0---0---0---0---0-------0---|----0---0-------0---0---0---0---|
E|--------------------------------|--------------------------------|
 |
 |Gtr 2
G|10----------10--10--12-----10---|----\----------/----------------|
G|10----------10--10--12-----10---|-----\--------/-----------------|
D|10----------10--10--10-----10---|------\------/------------------|
D|10----------10--10--10-----10---|-------\----/-------------------|
G|0--------------------------0----|--------\--/--------------------|
G|0--------------------------0----|---------\/---------------------|


  Gtr 1
D|--------------------------------|--------------------------------|
E|5---5---5---5---5---5-------5---|----5---5-------5---5---5---5---|
G|0---0---0---0---0---0-------0---|----0---0-------0---0---0---0---|
D|7---7---7---7---7---7-------7---|----7---7-------7---7---7---7---|
G|0---0---0---0---0---0-------0---|----0---0-------0---0---0---0---|
E|--------------------------------|--------------------------------|
 |
 |Gtr 2
G|-----5--------------------------|----\----------/----------------|
G|----5---------------------------|-----\--------/-----------------|
D|---7----------------------------|------\------/------------------|
D|--7-----------------------------|-------\----/-------------------|
G|-0------------------------------|--------\--/--------------------|
G|0-------------------------------|---------\/---------------------|


  Gtr 1
D|--------------------------------|--------------------------------|
E|6---6---6---6---6---6-------6---|----6---6-------6---6---6---6---|
G|0---0---0---0---0---0-------0---|----0---0-------0---0---0---0---|
D|8---8---8---8---8---8-------8---|----8---8-------8---8---8---8---|
G|0---0---0---0---0---0-------0---|----0---0-------0---0---0---0---|
E|--------------------------------|--------------------------------|
 |
 |Gtr 2
G|-----0----------0-0-0-0-0---0---|0-------0-----------------------|
G|----0-----------0-0-0-0-0---0---|0-------0-----------------------|
D|---12---------------------------|--------------------------------|
D|--12----------------------------|--------------------------------|
G|-0------------------------------|--------------------------------|
G|0-------------------------------|--------------------------------|

1ST CHORUS: repeat x4
  Gtr 1
D|----------------5---3-----------|--------------------------------|
E|3-------3-------3---3-------5---|----5---3---3/--8---8---6-------|
G|0-------0-------------------0---|----0---0---0---0---0---0-------|
D|0-------0-------------------0---|----0---0---0---0---0---0-------|
G|0-------0-----------------------|--------------------------------|
E|--------------------------------|--------------------------------|
 |
 |Gtr 2
G|----------------10\---------2---|----2---0---0---5---5---3-------|
G|----------------10\---------0---|----0---0---0---0---0---0-------|
D|0-------0-------12\-------------|--------------------------------|
D|0-------0-------12\-------------|--------------------------------|
G|0-------0-----------------------|--------------------------------|
G|0-------0-----------------------|--------------------------------|

BRIDGE RIFF
  Gtr 1
D|--------------------------------|--------------------------------|
E|--------5-----------------------|--------5-----------------------|
G|5---5-------5---7---5-----------|5---5-------5---7---5-----------|
D|5-----------------------5-------|5-----------------------5-------|
G|5---------------------------5---|5---------------------------5---|
E|--------------------------------|--------------------------------|
 |
 |Gtr 2
G|5-----------------------5---5---|5-----------------------x---x---|
G|5-----------------------5---5---|5-----------------------x---x---|
D|5-----------------------5---5---|5-----------------------x---x---|
D|5-----------------------5---5---|5-----------------------x---x---|
G|5-----------------------5---5---|5-----------------------x---x---|
G|5-----------------------5---5---|5-----------------------x---x---|

[ Tab from: http://www.guitaretab.com/s/sonic-youth/95988.html ]
  Gtr 1
D|----------------5---5---5---3---|----3---3---3---3---3---3---3---|
E|3-------3---3---3---3---3---3---|----3---3---3---3---3---3---3---|
G|0-------0---0---0---0---0---0---|----0---0---0---0---0---0---0---|
D|0-------0---0---0---0---0---0---|----0---0---0---0---0---0---0---|
G|0-------0---0---0---0---0---0---|----0---0---0---0---0---0---0---|
E|--------------------------------|--------------------------------|
 |
 |Gtr 2
G|----------------3---3-----------|----------------3---3---x---x---|
G|----------------3---3-----------|----------------3---3---x---x---|
D|5-------5-------5---5-------5---|--------5---5---5---5---x---x---|
D|5-------5-------5---5-------5---|--------5---5---5---5---x---x---|
G|0-------0-------0---0-------0---|--------0---0-------------------|
G|0-------0-------0---0-------0---|--------0---0-------------------|


  Gtr 1
D|--------------------------------|--------------------------------|
E|--------5-----------------------|--------5-----------------------|
G|5---5-------5---7---5-----------|5---5-------5---7---5-----------|
D|5-----------------------5-------|5-----------------------5-------|
G|5---------------------------5---|5---------------------------5---|
E|--------------------------------|--------------------------------|
 |
 |Gtr 2
G|5-----------------------5---5---|5---------------5---5---5---5---|
G|5-----------------------5---5---|5---------------5---5---5---5---|
D|5-----------------------5---5---|5---------------5---5---5---5---|
D|5-----------------------5---5---|5---------------5---5---5---5---|
G|5-----------------------5---5---|5---------------5---5---5---5---|
G|5-----------------------5---5---|5---------------5---5---5---5---|


  Gtr 1
D|----------------5---5---5---3---|----3---3---3---3---3---3---3---|
E|3-------3---3---3---3---3---3---|----3---3---3---3---3---3---3---|
G|0-------0---0---0---0---0---0---|----0---0---0---0---0---0---0---|
D|0-------0---0---0---0---0---0---|----0---0---0---0---0---0---0---|
G|0-------0---0---0---0---0---0---|----0---0---0---0---0---0---0---|
E|--------------------------------|--------------------------------|
 |
 |Gtr 2
G|----------------3---3-----------|----------------3---3---3---3---|
G|----------------3---3-----------|----------------3---3---3---3---|
D|5-------5-------5---5-------5---|----5---5---5---5---5---5---5---|
D|5-------5-------5---5-------5---|----5---5---5---5---5---5---5---|
G|0-------0-------0---0-------0---|----0---0---0---0---0---0---0---|
G|0-------0-------0---0-------0---|----0---0---0---0---0---0---0---|


  Gtr 1
D|7-------7---7-------7---7---7---|----7---7---7---7---7---7---7---|
E|5-------5---5-------5---5---5---|----5---5---5---5---5---5---5---|
G|5-------5---5-------5---5---5---|----5---5---5---5---5---5---5---|
D|5-------5---5-------5---5---5---|----5---5---5---5---5---5---5---|
G|5-------5---5-------5---5---5---|----5---5---5---5---5---5---5---|
E|--------------------------------|--------------------------------|
 |
 |Gtr 2
G|--------------------------------|--------------------------------|
G|--------------------------------|--------------------------------|
D|7-------7---7-----------7---7---|7-------7---7-------------------|
D|7-------7---7-----------7---7---|7-------7---7-------------------|
G|5-------5---5-----------5---5---|5-------5---5-------------------|
G|5-------5---5-----------5---5---|5-------5---5-------------------|


  Gtr 1
D|--------------------------------|--------------------------------|
E|10--10--10--10--10--10--10--10--|10--10--10--10--10--10--10--10--|
G|7---7---7---7---7---7---7---7---|7---7---7---7---7---7---7---7---|
D|0---0---0---0---0---0---0---0---|0---0---0---0---0---0---0---0---|
G|0---0---0---0---0---0---0---0---|0---0---0---0---0---0---0---0---|
E|--------------------------------|--------------------------------|
 |
 |Gtr 2
G|--------------------------------|--------------------------------|
G|--------------------------------|--------------------------------|
D|12--12--12--12--12--12--12--12--|12--12--12--12--12--12--12--12--|
D|12--12--12--12--12--12--12--12--|12--12--12--12--12--12--12--12--|
G|0---0---0---0---0---0---0---0---|0---0---0---0---0---0---0---0---|
G|0---0---0---0---0---0---0---0---|0---0---0---0---0---0---0---0---|


  Gtr 1
D|7-------7---7-------7---7---7---|----7---7---7---7---7---7---7---|
E|5-------5---5-------5---5---5---|----5---5---5---5---5---5---5---|
G|5-------5---5-------5---5---5---|----5---5---5---5---5---5---5---|
D|5-------5---5-------5---5---5---|----5---5---5---5---5---5---5---|
G|5-------5---5-------5---5---5---|----5---5---5---5---5---5---5---|
E|--------------------------------|--------------------------------|
 |
 |Gtr 2
G|--------------------------------|--------------------------------|
G|--------------------------------|--------------------------------|
D|7-------7---7-------7---7---7---|7-------7---7-------7---7---7---|
D|7-------7---7-------7---7---7---|7-------7---7-------7---7---7---|
G|5-------5---5-------5---5---5---|5-------5---5-------5---5---5---|
G|5-------5---5-------5---5---5---|5-------5---5-------5---5---5---|


  Gtr 1
D|--------------------------------|--------------------------------|
E|10--10--10--10--10--10--10--10--|10--10--10--10--10--10--10--10--|
G|7---7---7---7---7---7---7---7---|7---7---7---7---7---7---7---7---|
D|0---0---0---0---0---0---0---0---|0---0---0---0---0---0---0---0---|
G|0---0---0---0---0---0---0---0---|0---0---0---0---0---0---0---0---|
E|--------------------------------|--------------------------------|
 |
 |Gtr 2
G|--------------------------------|--------------------------------|
G|--------------------------------|--------------------------------|
D|12--12--12--12--12--12--12--12--|12--12--12--12--12--12--12--12--|
D|12--12--12--12--12--12--12--12--|12--12--12--12--12--12--12--12--|
G|0---0---0---0---0---0---0---0---|0---0---0---0---0---0---0---0---|
G|0---0---0---0---0---0---0---0---|0---0---0---0---0---0---0---0---|

TURNAROUND RIFF
  Gtr 1
D|0---0---0---0---0---0---0---0---|0---0---0---0---0---0---0---0---|
E|10--10--10--10--10--10--10--10--|10--10--10--10--10--10--10--10--|
G|7---7---7---7---7---7---7---7---|7---7---7---7---7---7---7---7---|
D|0---0---0---0---0---0---0---0---|0---0---0---0---0---0---0---0---|
G|0---0---0---0---0---0---0---0---|0---0---0---0---0---0---0---0---|
E|--------------------------------|--------------------------------|
 |
 |Gtr 2
G|0---0---0---0---0---0---0---0---|0---0---0---0---0---0---0---0---|
G|0---0---0---0---0---0---0---0---|0---0---0---0---0---0---0---0---|
D|12--12--12--12--12--12--12--12--|12--12--12--12--12--12--12--12--|
D|12--12--12--12--12--12--12--12--|12--12--12--12--12--12--12--12--|
G|0---0---0---0---0---0---0---0---|0---0---0---0---0---0---0---0---|
G|0---0---0---0---0---0---0---0---|0---0---0---0---0---0---0---0---|


  Gtr 1
D|0---0---0---0---0---0---0---0---|0---0---0---0---0---0---0---0---|
E|9---9---9---9---9---9---9---9---|9---9---9---9---9---9---9---9---|
G|6---6---6---6---6---6---6---6---|6---6---6---6---6---6---6---6---|
D|0---0---0---0---0---0---0---0---|0---0---0---0---0---0---0---0---|
G|0---0---0---0---0---0---0---0---|0---0---0---0---0---0---0---0---|
E|--------------------------------|--------------------------------|
 |
 |Gtr 2
G|0---0---0---0---0---0---0---0---|0---0---0---0---0---0---0---0---|
G|0---0---0---0---0---0---0---0---|0---0---0---0---0---0---0---0---|
D|12--12--12--12--12--12--12--12--|12--12--12--12--12--12--12--12--|
D|11--11--11--11--11--11--11--11--|11--11--11--11--11--11--11--11--|
G|0---0---0---0---0---0---0---0---|0---0---0---0---0---0---0---0---|
G|0---0---0---0---0---0---0---0---|0---0---0---0---0---0---0---0---|


  Gtr 1
D|0---0---0---0---0---0---0---0---|0---0---0---0---0---0---0---0---|
E|10--10--10--10--10--10--10--10--|10--10--10--10--10--10--10--10--|
G|7---7---7---7---7---7---7---7---|7---7---7---7---7---7---7---7---|
D|0---0---0---0---0---0---0---0---|0---0---0---0---0---0---0---0---|
G|0---0---0---0---0---0---0---0---|0---0---0---0---0---0---0---0---|
E|--------------------------------|--------------------------------|
 |
 |Gtr 2
G|0---0---0---0---0---0---0---0---|0---0---0---0---0---0---0---0---|
G|0---0---0---0---0---0---0---0---|0---0---0---0---0---0---0---0---|
D|12--12--12--12--12--12--12--12--|12--12--12--12--12--12--12--12--|
D|12--12--12--12--12--12--12--12--|12--12--12--12--12--12--12--12--|
G|0---0---0---0---0---0---0---0---|0---0---0---0---0---0---0---0---|
G|0---0---0---0---0---0---0---0---|0---0---0---0---0---0---0---0---|


  Gtr 1
D|0---0---0---0---0---0---0---0---|0---0---0---0---0---0---0---0---|
E|9---9---9---9---9---9---9---9---|9---9---9---9---9---9---9---9---|
G|6---6---6---6---6---6---6---6---|6---6---6---6---6---6---6---6---|
D|0---0---0---0---0---0---0---0---|0---0---0---0---0---0---0---0---|
G|0---0---0---0---0---0---0---0---|0---0---0---0---0---0---0---0---|
E|--------------------------------|--------------------------------|
 |
 |Gtr 2
G|0---0---0---0---0---0---0---0---|0---0---0---0---0---0---0---0---|
G|0---0---0---0---0---0---0---0---|0---0---0---0---0---0---0---0---|
D|12--12--12--12--12--12--12--12--|12--12--12--12--12--12--12--12--|
D|11--11--11--11--11--11--11--11--|11--11--11--11--11--11--11--11--|
G|0---0---0---0---0---0---0---0---|0---0---0---0---0---0---0---0---|
G|0---0---0---0---0---0---0---0---|0---0---0---0---0---0---0---0---|

BREAK RIFF: repeat x4

2ND VERSE: repeat x2

CHORUS RIFF: repeat x4

BRIDGE RIFF

TURNAROUND RIFF

NOISE INTERLUDE: repeat x19
  Gtr 1
D|0---0---0---0---0---0---0---0---|0---0---0---0---0---0---0---0---|
E|10--10--10--10--10--10--10--10--|10--10--10--10--10--10--10--10--|
G|7---7---7---7---7---7---7---7---|7---7---7---7---7---7---7---7---|
D|0---0---0---0---0---0---0---0---|0---0---0---0---0---0---0---0---|
G|0---0---0---0---0---0---0---0---|0---0---0---0---0---0---0---0---|
E|--------------------------------|--------------------------------|
 |
 |Gtr 2
G|12--12--12--12--12--12--12--12--|12--12--12--12--12--12--12--12--|
G|12--12--12--12--12--12--12--12--|12--12--12--12--12--12--12--12--|
D|12--12--12--12--12--12--12--12--|12--12--12--12--12--12--12--12--|
D|0---0---0---0---0---0---0---0---|0---0---0---0---0---0---0---0---|
G|0---0---0---0---0---0---0---0---|0---0---0---0---0---0---0---0---|
G|0---0---0---0---0---0---0---0---|0---0---0---0---0---0---0---0---|

3RD VERSE: repeat x2

CHORUS RIFF: repeat x4

BRIDGE RIFF

TURNAROUND RIFF

ENDING
  Gtr 1
D|--------------------------------|--------------------------------|
E|--------------------------------|--------------------------------|
G|0-------------------------------|(0)-----------------------------|
D|0-------------------------------|(0)-----------------------------|
G|0-------------------------------|(0)-----------------------------|
E|--------------------------------|--------------------------------|
 |
 |Gtr 2
G|0-------------------------------|(0)-----------------------------|
G|0-------------------------------|(0)-----------------------------|
D|0-------------------------------|(0)-----------------------------|
D|0-------------------------------|(0)-----------------------------|
G|0-------------------------------|(0)-----------------------------|
G|0-------------------------------|(0)-----------------------------|


---------------- OLD VERSIONS ---------------------------------

This is originally a tab of only Lee's guitar, but this time also with
Thurston's!!!

tUnInG:
- tM: EGDGED
- lR: GGDDGG

tM:

intro:
D|---------------------------------|
E|-10(16times)-9(16times)----------|
G|- 7(""""""")-6(""""""")-0 let ---|
D|------------------------0 it ----|
G|------------------------0 ring --|
E|---------------------------------|

verse:		 bridge:			chorus 1st part:		  2nd part:
D|----------0-|------------------------|--------------------3--5-3-|-5-7-5-----|
E|-6--8--5--6-|-----13--5--3-- 8--6----|--------------------3--3-3-|-5-5-5--10-|
G|-0--0--5--0-|---12----0--0-- 0--0- x2|--5-5-7-5---5-5-7-5-0------|-5-5-5-- 7-| then,
D|-0--8--7--8-|-0-------7--3--10--8----|---5---5-5---5---5---------|-5-5-5-- 0-| back
G|-0--0--0--0-|-0----------------------|-5---------5---------------|-5-5-5-- 0-| to the
E|------------|------------------------|---------------------------|-----------| intro...
the intrumental part in the middle, is just some unclear mix of delay, reverb and feedback

lR:

Intro:
G--7-7-7-7-7-7-7-7-6-6-6-6-6-6-6-6--|
G--7-7-7-7-7-7-7-7-7-7-7-7-7-7-7-7--|
D-----------------------------------| x2
D-----------------------------------|
G-----------------------------------|
G-----------------------------------|

G--0------------------------------|
G--0------------------------------|
D--0------------------------------| x4
D--0------------------------------|
G--0------------------------------|
G--0-0-0-0-0-0-0-0-0-0-0-0-0-0----|

verse:
G-7---10---5--7---12--10--5--7---12--10--5--7--12--14-14-14-14-14--10--12--10-|
G-7---10---5--7---12--10--5--7---12--10--5--7--12--14-14-14-14-14--10--12--10-|
D-8---10---7--5---12--10--7--5---12--10--7--8--12-----------------------------|
D-8---10---7--5---12--10--7--5---12--10--7--8--12-----------------------------|
G-------------0--------------0------------------------------------------------|
G-------------0--------------0------------------------------------------------|

...you ain't never going anywhere...
G--------10-------------------|
G--------10-------------------|
D--0-0---10--7-7-5-5-10-10-8--|
D--0-0---10--7-7-5-5-10-10-8--| x4
G--0-0------------------------|
G--0-0------------------------|

chorus: ...goodbye richard...
G--5---3---5---3---5---7--5--7--|
G--5---3---5---3---5---7--5--7--|
D--5---5---5---5---7---5--7--5--|
D--5---5---5---5---7---5--7--5--|
G--5-------5--------------------|
G--5-------5--------------------|

--------------------------------------------------------------------------

This is the tab just for one guitar, almost all of it is Lee's
parts, can't really hear Thurston.

Tuning: GGDDGG

Intro:
--7-7-7-7-7-7-7-7-6-6-6-6-6-6-6-6-----|
--7-7-7-7-7-7-7-7-6-6-6-6-6-6-6-6-----|
--0-0-0-0-0-0-0-0-0-0-0-0-0-0-0-0-----| x2
--0-0-0-0-0-0-0-0-0-0-0-0-0-0-0-0-----|
--------------------------------------|
--------------------------------------|

--0------------------------------|
--0------------------------------|
--0------------------------------| x4
--0------------------------------|
--0------------------------------|
--0-0-0-0-0-0-0-0-0-0-0-0-0-0----|

Verse: (I worked this out from a live recording, it is a tiny bit
        different but it was a lot easier to hear than the LP and
        I reckon it sounds better anyway.)
       (play A, B, A, B)
A. (w - use whammy bar)
---------------------------------------------------------------|
-12w-----------10----10-12-10w-------5w-----------7---7b(b)(r)-|
---------------------------------------------------------------|
---------------------------------------------------------------|
---------------------------------------------------------------|
---------------------------------------------------------------|
B. (timing not shown)
---------------------------------------------------------------------|
-12-12/14-15-14-12-12-14-12--10-12-14\12-12-10w----5w----7--7b(b)(r)-|
---------------------------------------------------------------------|
---------------------------------------------------------------------|
---------------------------------------------------------------------|
---------------------------------------------------------------------|

        You are never going.... part:
---------------------------------------|
-------12-10-14--14-12-12--5-5-3-------|
--0-0----------------------------------| x4
--0-0----------------------------------|
--0-0----------------------------------|
--0-0----------------------------------|

Next part:
----------------------------------------------------------------|
--5-12-12-12-14-14-12-5-12-12-12-14-12--3w-------------10-12-10-|
----------------------------------------------------------------| x2
----------------------------------------------------------------|
----------------------------------------------------------------|
----------------------------------------------------------------|

-----------------------------------------------------------|
--5--/--14--14-14-14-5--/--14--14-14-14--7-7-7-7-7-7-7-7---|
-----------------------------------------------------------| x2
-----------------------------------------------------------|
-----------------------------------------------------------|
-----------------------------------------------------------|


Tabbed By - Taliani/Corky
Related for Tunic tab