Song name
# A B C D E F G H I J K L M N O P Q R S T U V W X Y Z

Sonica - Decidi tab

ke onda palomilla, ps aki les tengo mi version de
esta obra maestra de sonica haber ke les parece

para tokar esta rola se le tiene ke bajar el tono a la
sexta cuerda hasta el traste siete.....

(guitarra limpia)
1----------------------------------------------------|
2----------------------------------------------------|
3---777777--7777-77-7777-----------------------------|
4---777777--7777-77-7777-----------------------------| x4
5---555555--4444-55-5555-----------------------------|
6-----------4444-55-5555-----------------------------|

todos dicen ke estoy mal,
ke no debo caminar...
ke yo aki no debo estar,
no me kieren entender..

(aki se agrega distorcion..)
1----------------------------------------------------|
2----------------------------------------------------|
3----------------------------------------------------|
4---777777-------------------------------------------| x4
5---555555--4444-55-5555-----------------------------|
6-----------4444-55-5555-----------------------------|

(este verso se toka rascando solo una ves y dejando sonar el acorde
con la distorcion...)
1----------------------------------------------------|
2----------------------------------------------------|
3----------------------------------------------------|
4---7------------------------------------------------| x10
5---5-------4----5-----------------------------------|
6-----------4----5-----------------------------------|

todos kieren ayudar,
pero no los dejo entrar,
yo me kiero destruir
nada es para siempre....
el camino termino,
este dia decidi...
dejare de ser mortal
voy a caerme!!

(coro)
1----------------------------------------------------|
2----------------------------------------------------|
3----------------------------------------------------|
4---777777-------------------------------------------|
5---555555--4444-55-5555-----------------------------|
6-----------4444-55-5555-----------------------------|

todos hablan sin hablar
pero yo puedo volar
nadie puede detener
nuestra caida ...x2

(puente)
1----------------------------------------------------|
2----------------------------------------------------|
3----------------------------------------------------|
4----------------------------------------------------|
5--444444--555555-xxxx-444444-555555-xxxx------------|
6--444444--555555-xxxx-444444-555555-xxxx------------|

no me puedoooo...levantar....
1----------------------------------------------------|
2----------------------------------------------------|
3----------------------------------------------------|
4----------------------------------------------------|
5--444444--555555-xxxx-444444-555555-777777----------|
6--444444--555555-xxxx-444444-555555-777777----------|

no me puedoooo...levantaar....

(figura)
1----------------------------------------------------|
2----------------------------------------------------|
3----------------------------------------------------|
4------------------------444-2-0---------------------| x2
5--5-7777-555-5-7777-555---------444-----------------|
6----------------------------------------------------|

1----------------------------------------------------|
2----------------------------------------------------|
3----------------------------------------------------|
4---457-7-97-77-54444-5444-454444-5447-5444-579975-7-|
5------------------------------------5-------------5-|
6----------------------------------------------------|

1----------------------------------------------------|
2----------------------------------------------------|
3----------------------------------------------------|
4---7--------7-----------7----4----47----------------|
5---5-444-55-5-45797545-45-457-7545-5----------------|
6-----444-55-----------------------------------------|

(coro)
1----------------------------------------------------|
2----------------------------------------------------|
3----------------------------------------------------|
4---777777-------------------------------------------|
5---555555--4444-55-5555-----------------------------|
6-----------4444-55-5555-----------------------------|

todos hablan sin hablar
pero yo puedo volar
nadie puede detener
nuestra caida ...x2

nuestra caida....
nuestra caida....
nuestra caida....

(outro)
1----------------------------------------------------|
2----------------------------------------------------|
3----------------------------------------------------|
4----------------------------------------------------| x4
5---00xxxx44xxxx55xxxx22121200-----------------------|
6---00xxxx44xxxx55xxxx22121200-----------------------|

bueno ps ahi la tienen ke la disfruten y apoyen al rock mexicano!!!
no sean mierdas denme + puntos
Tap to rate this tab
# A B C D E F G H I J K L M N O P Q R S T U V W X Y Z