Song name
# A B C D E F G H I J K L M N O P Q R S T U V W X Y Z

Sonicflood - Carried Away tab

Carried Away
Artist: Sonicflood
Album: Sonicflood
Transcribed by: jed
Email: jclgreat@juno.com

Intro
-------------------------------------------------------------------------|
-------------------------------------------------------------------------|
--9-9-9-9-9-9-9-9-5-5-5-5-5-5-5-5-----------------7-7-7-7-7--------------|
--x-x-x-x-x-x-x-x-x-x-x-x-x-x-x-x-5-5-5-5-5-5-5-5-x-x-x-x-x--------------|
--7-7-7-7-7-7-7-7-3-3-3-3-3-3-3-3-x-x-x-x-x-x-x-x-5-5-5-5-5--------------|
----------------------------------3-3-3-3-3-3-3-3------------------------|


Verse:
NC Em
C7
G
D

Chorus:
1st time just acoustic (last F and G are single strums)
2nd time full band
C Em
A
C
G D
C Em
A
C
G D
F G

Bridge:
D C
Bb C D
C
Bb C D


Solo 1
D5-F#5-A5
-------------------------------------------------------------------------|
--7h8p7h8p7--------------------------------------------------------------|
-------------6-----------------------------------------------------------|
------------------7----9----7--------------------------------------------|
---------------------------------9----7--5-------------------------------|
-------------------------------------------------------------------------|

D5-F#5-B5
-------------------------------------------------------------------------|
--7h8p7h8p7--------------------------------------------------------------|
-------------6------------------------------------11---------------------|
------------------7----9----11h12p11h12p11h12p11-------------------------|
-------------------------------------------------------------------------|
-------------------------------------------------------------------------|

D5-F#5-A5
-------------------------------------------------------------------------|
--7h8p7h8p7--------------------------------------------------------------|
-------------6-----------------------------------------------------------|
------------------7----9----7--------------------------------------------|
---------------------------------9--\7/9\7\5-----------------------------|
-------------------------------------------------------------------------|

D5-F#5-B5
-------------------------------------------------------------------------|
--7h8p7h8p7--------------------------------------------------------------|
-------------6-----------------------------------------------------------|
------------------7----7/9/13v-------------------------------------------|
-------------------------------------------------------------------------|
-------------------------------------------------------------------------|

Solo 2
over chorus chords
with wah
-------------------------------------------------------------------------|
--17b----15b-------------------------------------------------------------|
----------------14--14----12-14-12---------------------------------------|
-----------------------------------14-14---------------------------------|
-------------------------------------------------------------------------|
-------------------------------------------------------------------------|


-------------------------------------------------------------------------|
--17b----15b----17--17--15-----------------------------------------------|
------------------------------------16--14-------------------------------|
----------------------------14--17----------14--14-----------------------|
-------------------------------------------------------------------------|
-------------------------------------------------------------------------|

Chorus

Outro F-Em

C7-x32000

                         -TRANSFERED BY ASA GASTON-


official link: www.sonicflood.com
Tap to rate this tab
# A B C D E F G H I J K L M N O P Q R S T U V W X Y Z