Guitaretab - guitar tabs
Song name
# A B C D E F G H I J K L M N O P Q R S T U V W X Y Z

Sonicflood - Before The Throne Of God Above tab

Before The Throne Of God Above
Artist: Sonicflood
CD: SonicPraise
c2000 Sonicflood
Tabbed by Steve Cruickshank
(postlambjam@hotmail.com)


Intro:

e---------------------------------------------------------------------------|
B---------------------15----------15--------15------------------------------|
G-----12--12/14----12----12----------12--------12--12\11~~~---\2------------|
D---0------------0-------------0--------0-----------------------------------|
A---------------------------------------------------------------------------|
E---------------------------------------------------------------------------|

e---------------------------------------------------------------------------|
B---------------------------------------------------------------------------|
G-----0---0---0-0h2----------4b5r4--2-------4b5r4--2--4/7~~~----------------|
D---0---0---0--------------------------0------------------------------------|
A---------------------------------------------------------------------------|
E---------------------------------------------------------------------------|

e---------------------------------------------------------------------------|
B---------------------------------------------------------------------------|
G---7~~\4---4/5\4\2~~~~--0---0---0h2-------4b5r4--4b5r4--4b5r4--4b5r4---2---|
D--------------------------0---0----------------------------------------0---|
A---------------------------------------------------------------------------|
E---------------------------------------------------------------------------|

e---------------------------------------------------------------------------|
B---------------------------------------------------------------------------|
G--/11-11-11-12-----11b12r11-----11b12r11-----12-----12/14------\12---------|
D---0---0--0--0------0--------0------------0------0-------------------------|
A---------------------------------------------------------------------------|
E---------------------------------------------------------------------------|


[Enter drums]
e---------------------------------------------------------------------------|
B---------------------------------------------------------------------------|
G---------------------------------------------------------------------------|
D-------4--5~~-----5/7----\2/4-----4b5r4--2--0--0h2------2/4-----0----------|
A-----5---------------------------------------------------------------------|
E---5-----------------------------------------------------------------------|

e---------------------------------------------------------------------------|
B---------------------------------------------------------------------------|
G---2---/7---/11-12~~~-------12/14-----9--9/11------11b12r11---9--7--7/9----|
D---0----------------------0----------------------0-------------------------|
A---------------------------------------------------------------------------|
E---------------------------------------------------------------------------|


Verse 1:
D
D F#m
G A Bm
A G D/F# Em A D

D/F# G D/F# D A
D/F# G D/F# G A Bm
A G D/F# A Bm
A G D/F# Em A Bm
A G D/F# Em A D

Verse 2:
(same chords as Verse 1)

Solo:

e---------------------------------------------------------------------------|
B---------------------------------------------------------------------------|
G-------7--9--9/11---7---7--7-----------------------------------------------|
D-----7----------------9----------------------------------------------------|
A---------------------------------------------------------------------------|
E---------------------------------------------------------------------------|
                D
[ Tab from: http://www.guitaretab.com/s/sonicflood/144887.html ]
e---------------------------------------------------------------------------|
B----------------------------10-10------------------------------------------|
G-------7--9--9/11---7---11-------------------------------------------------|
D-----7---------------------------------------------------------------------|
A---------------------------------------------------------------------------|
E---------------------------------------------------------------------------|
                D               F#m

e----------------------------------------------------------------------------|
B-------7--10--/12~---10-----------------------------------------------------|
G-----7-------------------9--11--7----------11--9----------------------------|
D-------------------------------------9/12------------12---9---9/12----12~~~-|
A----------------------------------------------------------------------------|
E----------------------------------------------------------------------------|
                G         A      Bm     A       G     D/F# Em    A     D

e---------------------------------------------------------------------------|
B-----15-15-14--12----------------------15-15-14--12------12-14-15----------|
G------------------14--11--14-14---------------------14---------------------|
D---------------------------------------------------------------------------|
A---------------------------------------------------------------------------|
E---------------------------------------------------------------------------|
         D/F#   G  D/F# D     A            D/F#   G  D/F# G  A  Bm

e---------------------------------------------------------------------------|
B-----15/17--15-14-12-------------------------------------------------------|
G----------------------14-------11------------------------------------------|
D---------------------------14------12~~~-----------------------------------|
A---------------------------------------------------------------------------|
E---------------------------------------------------------------------------|
             A     G   D/F# A       Bm

e---------------------------------------------------------------------------|
B--------------------7------------------------------------------------------|
G-----------------7-----9--7------------------------------------------------|
D-----12\-----/9---------------9---9/12---12~~~-----------------------------|
A---------------------------------------------------------------------------|
E---------------------------------------------------------------------------|
                  A     G D/F# Em    A    Bm

e---------------------------------------------0-----------------------------|
B--------------------7------------------------3-----------------------------|
G-----------------7-----9--7------------------2-----------------------------|
D-----12\-----/9---------------9~~----9/12----0-----------------------------|
A---------------------------------------------0-----------------------------|
E---------------------------------------------------------------------------|
                  A     G D/F# Em       A     D


Verse 3:
(same chords as Verse 1)


Ending:
e---0------0----------------------------------------------------------------|
B-----3------3--------------------------------------------------------------|
G-------2------2------------------------------------------------------------|
D----------------0----------------------------------------------------------|
A---------------------------------------------------------------------------|
E---------------------------------------------------------------------------|

e---0------0------0------0h2-----2---------3------3-------5----------5------|
B-----3------3------3--------------3---------3------3-------3--------3------|
G-------2------2--------------2----------------2------2-------2------2------|
D--------------------------------------------------------------------0------|
A--------------------------------------------------------------------0------|
E---------------------------------------------------------------------------|


                         -TRANSFERED BY ASA GASTON-

OFFICIAL LINK: www.sonicflood.com
Related for Before The Throne Of God Above tab