Guitaretab - guitar tabs
Song name
# A B C D E F G H I J K L M N O P Q R S T U V W X Y Z

Sonicflood - Never Forget You tab

----------------------------------------------------------------------------
                       Sonicflood - Never Forget you
----------------------------------------------------------------------------


Tabbed By: 0GibsonLesPaul0
Email: ---------
Tuning: Standard

gtr 1

e|----------------------|---------------|
B|----------------------|---------------|
G|----------------------|---------------|
D|-3-3------------------|-3-3-----------|
A|-3-3------------------|-3-3-----------|
E|-1-1------------------|-1-1-----------|
 |
 |
gtr 2
 |
e|----------------------|---------------|
B|----------------------|-----------5b--|
G|-----4-4b5-hold bend--|-----4-4h5-----|
D|----------------------|---------------|
A|----------------------|---------------|
E|----------------------|---------------|

_________________________________________________________________


gtr1

e|--------------------------------|
B|--------------------------------|
G|-5-5-5-5-5-5-5-5-5-5-5-5-5-5-5--|
D|-5-55-5-5-5-5-5-5-5-5-5-5-5-5--|
A|-3-3-3-3-3-3-3-3-3-3-3-3-3-3-3--|
E|--------------------------------|
 |
 |
gtr. 2
 |
e|--------------------------------|
B|--------------------------------|
G|-5-5-/-9-9-9-\-5-5-/-9-9-9/10\9-|
D|-5-5-/-9-9-9-\-5-5-/-9-9-9/10\9-|
A|-3-3-/-7-7-7-\-3-3-/-7-7-7/8 \7-|
E|--------------------------------|
[ Tab from: http://www.guitaretab.com/s/sonicflood/176270.html ]
____________________________________________________________________________


gtr 1

e|----------------------|---------------|
B|----------------------|---------------|
G|----------------------|---------------|
D|-3-3------------------|-3-3-----------|
A|-3-3------------------|-3-3-----------|
E|-1-1------------------|-1-1-----------|
 |
 |
gtr 2
 |
 |
e|----------------------|---------------|
B|----------------------|---------------|
G|-----4-4b5-hold bend--|-----4-4p2h5---|
D|----------------------|---------------|
A|----------------------|---------------|
E|----------------------|---------------|

_________________________________________________________________


gtr1

e|--------------------------------|
B|--------------------------------|
G|-5-5-5-5-5-5-5-5-5-5-5-5-5-5-5--|
D|-5-55-5-5-5-5-5-5-5-5-5-5-5-5--|
A|-3-3-3-3-3-3-3-3-3-3-3-3-3-3-3--|
E|--------------------------------|
 |
 |
gtr. 2
 |
 |
e|--------------------------------|
B|--------------------------------|
G|-5-5-/-9-9-9-\-5-5-/-9-9-9/10\9-|
D|-5-5-/-9-9-9-\-5-5-/-9-9-9/10\9-|
A|-3-3-/-7-7-7-\-3-3-/-7-7-7/8 \7-|
E|--------------------------------|


| /  slide up
| \  slide down
| h  hammer-on
| p  pull-off
| ~  vibrato
| +  harmonic
| x  Mute note
============================================================================
Related for Never Forget You tab