Guitaretab - guitar tabs
Song name
# A B C D E F G H I J K L M N O P Q R S T U V W X Y Z

Sonicflood - This Generation tab

-------------------------------------------------------------------------------
                        THIS GENERATION  Sonicflood
-------------------------------------------------------------------------------
Tabbed by: 0GibsonLesPaul0
Email: -----

Tuning: Dropped D
______________________________________________________________________________
INTRO
e|---------------------------------------------------------------------------|
B|---------------------------------------------------------------------------|
G|---------------------------------------------------------------------------|
D|---------------------------------------------------------------------------|
A|-2h4-4-4-4-/7-7-7\2h4-4-4-4/7-7-7\2h4-4-4-4-/-7-7-7-\-2h4-4-4-4-/-7-7-7-\--|
D|---------------------------------------------------------------------------|


e|--x-x-x-x-x--------------7---------------------------------7--------------|
B|o-x-x-x-x-x--------------------------------------------------------------o|
G|--x-x-x-x-x---------------------------------------------------------------|
D|--x-x-x-x-x--2h4-4-4-4p2--2h4-4-4-4-4-x-2-2-x-2h4-4-4-4p2--4-7/6--------|
A|o-x-x-x-x-x--2h4-4-4-4p2--2h4-4-4-4-4-x-2-2-x-2h4-4-4-4p2--4-7/6-------o|
D|--x-x-x-x-x-2h4-4-4-4p2--2h4-4-4-4-2-x-2-2-x-2h4-4-4-4p2--4-7/6--------|


VERSE

e|---------------------------------------------------------------------------|
B|---------------------------6---8---10-------6---8---10----11---------------|
G|----------------------------------------7--------------10------------------|
D|-4-------------------------------------------------------------------------|
A|-4-------------------------------------------------------------------------|
D|-4-------------------------------------------------------------------------|


BRIDGE | 2X

e|---------------------------------------------------------|
B|---------------------------------------------------------|
G|----5-4---------------5-4-x-x---5-4----------------------|
D|--4-5-4-------------4-5-4x-x-4-5-4-------------5---2----|
A|--4-3-20-0h2p0----4-3-2-x-x-4-3-2--0-0h2p0---5---2----|
D|--4-----------------4---------4-----------------5---2----|
[ Tab from: http://www.guitaretab.com/s/sonicflood/179945.html ]
e|--x-x-x-x-x--------------7---------------------------------7--------------|
B|--x-x-x-x-x---------------------------------------------------------------|
G|--x-x-x-x-x---------------------------------------------------------------|
D|--x-x-x-x-x--2h4-4-4-4p2--2h4-4-4-4-4-x-2-2-x-2h4-4-4-4p2--4-7/6--------|
A|--x-x-x-x-x--2h4-4-4-4p2--2h4-4-4-4-4-x-2-2-x-2h4-4-4-4p2--4-7/6--------|
D|--x-x-x-x-x-2h4-4-4-4p2--2h4-4-4-4-2-x-2-2-x-2h4-4-4-4p2--4-7/6--------|


VERSE

e|---------------------------------------------------------------------------|
B|---------------------------6---8---10-------6---8---10----11---------------|
G|----------------------------------------7--------------10------------------|
D|-4-------------------------------------------------------------------------|
A|-4-------------------------------------------------------------------------|
D|-4-------------------------------------------------------------------------|

BRIDGE | 2X

e|---------------------------------------------------------|
B|---------------------------------------------------------|
G|----5-4---------------5-4-x-x---5-4----------------------|
D|--4-5-4-------------4-5-4x-x-4-5-4-------------5---2----|
A|--4-3-20-0h2p0----4-3-2-x-x-4-3-2--0-0h2p0---5---2----|
D|--4-----------------4---------4-----------------5---2----|


OUTRO (w/effects) 

e|-----------------------------------------------------------------|
B|-----------------------------------------------------------------|
G|-----------------------------------------------------------------|
D|-4-------------4-4-4-4-4-4-4---2h4-2h4---2h4-2h4---2h4-2h4--4/--|
A|-4(let ring)------------------2h4-2h4---2h4-2h4---2h4-2h4--4/--|
D|-4-----------------------------2h4-2h4---2h4-2h4---2h4-2h4--4/--|
                |-----P.M.----|

e|---------------------------------|
B|---------------------------------|
G|---------------------------------|
D|-2h4-2h4---2h4-2h4---2h4-2h44---|
A|-2h4-2h4---2h4-2h4---2h4-2h44---|
D|-2h4-2h4---2h4-2h4---2h4-2h44---|
| /  slide up
| \  slide down
| h  hammer-on
| p  pull-off
| ~  vibrato
| +  harmonic
| x  Mute note
===============================================================================

Related for This Generation tab