Guitaretab - guitar tabs
Song name
# A B C D E F G H I J K L M N O P Q R S T U V W X Y Z

Sonicflood - I Have Come To Worship tab

-------------------------------------------------------------------------------
                  I HAVE COME TO WORSHIP - Sonicflood
-------------------------------------------------------------------------------
Tabbed By: 0GibsonLesPaul0

Tuning: Standard


INTRO

e|--------|---------------------------------------------------|
B|--------|---------------------------------------------------|
G|-2~*/---|---------------------------------------------------|
D|--------|-7---9-7---9-7---9-7------7---9-7---9-7---9-7---9--|
A|--------|-7---9-7---9-7---9-7------7---9-7---9-7---9-7---9--|
E|--------|-5---7-5---7-5---7-5------5---7-5---7-5---7-5---7--|
 |*wide vabrato
 |
 |
 |
e|--------|---------------------------------------------------|
B|--------|---------------------------------------------------|
G|-2---/--|---------------------------------------------------|
D|-2---/--|-7---9-7---9-7---9-7------7---9-7---9-7---9-7---9--|
A|-0---/--|-7---9-7---9-7---9-7------7---9-7---9-7---9-7---9--|
E|--------|-5---7-5---7-5---7-5------5---7-5---7-5---7-5---7--|


VERSE

e|---------------------|
B|---------------------|
G|-4----5----4----5----|
D|-4----5----4----5----|
A|-2----3----2----3----|
E|---------------------|


PRE CHORUS

e|---------------------------------------|
B|---------------------------------------|
G|-2---------------------------7----5----|
D|-2----2----------------------7----5----|
A|-0----2----------------------5----3----|
E|------0--------------------------------|
 |
 |
 |
 |
e|---------------------------------------|
B|-2~------------------------------------|
G|-----------------------------7----5----|
D|------4b5-5p4\2~-/4b5-5p4/2-7----5----|
A|-----------------------------5----3----|
E|---------------------------------------|


CHORUS
[ Tab from: http://www.guitaretab.com/s/sonicflood/180623.html ]
e|------------------------------------------------|
B|------------------------------------------------|
G|------------------------------------------------|
D|-7---9-7---9-7---9-7------7---9-7---9-7---9-7---|
A|-7---9-7---9-7---9-7------7---9-7---9-7---9-7---|
E|-5---7-5---7-5---7-5------5---7-5---7-5---7-5---|


PRE CHORUS

e|---------------------------------------|
B|---------------------------------------|
G|-2---------------------------7----5----|
D|-2----2----------------------7----5----|
A|-0----2----------------------5----3----|
E|------0--------------------------------|
 |
 |
 |
 |
e|---------------------------------------|
B|-2~------------------------------------|
G|-----------------------------7----5----|
D|------4b5-5p4\2~-/4b5-5p4/2-7----5----|
A|-----------------------------5----3----|
E|---------------------------------------|


CHORUS

e|------------------------------------------------|
B|------------------------------------------------|
G|------------------------------------------------|
D|-7---9-7---9-7---9-7------7---9-7---9-7---9-7---|
A|-7---9-7---9-7---9-7------7---9-7---9-7---9-7---|
E|-5---7-5---7-5---7-5------5---7-5---7-5---7-5---|


BRIDGE

e|---------------------------------------------------|
B|---------------------------------------------------|
G|-2----4--------------7---------4----2---------7----|
D|-2----4----4----5----7----4----4----2----5----7----|
A|-0----2----4----5----5----4----2----0----5----5----|
E|-----------2----3---------2--------------3---------|


OUTRO

keep repeating this:
e|-----------------------------------------|
B|-----------------------------------------|
G|-2-2-2---2-2-2---2-2-2---2-2-2--2-2-2---|
D|-----------------------------------------|
A|-----------------------------------------|
E|-----------------------------------------|
Related for I Have Come To Worship tab