Song name
# A B C D E F G H I J K L M N O P Q R S T U V W X Y Z

Sonicflood - How Its Supposed To Be tab

-------------------------------------------------------------------------------
                   HOW IT’S SUPPOSED TO BE - Soniflood
-------------------------------------------------------------------------------
Tabbed By: 0GibsonLesPaul0


Tuning: Standard


INTRO | 2X

e|------------------------------------------------------------|
B|------------------------------------------b4-b4-b4-b4-------|
G|-------------------3--------------------------------3b5-----|
D|-------------------3—-3-------------------------------------|
A|-3-1-3-----3-------1—-3----3-1-3-----3----------------------|
E|---------3---1--------1------------3---1--------------------|


VERSE | 2X

e|--------------------------------------|
B|----------------------------4-4/6-6---|
G|-------------------3--------3-3/5-5---|
D|-------------------3—-3-----1-1/3-3---|
A|-3-1-3-----3-------1—-3---------------|
E|---------3---1--------1—--------------|
 |-----------3X-------------------------|


CHORUS

e|----------------------------------------|
B|----------------------------------------|
G|-5---------5------------------------3---|
D|-5----3----5----3----5----3----5----3---|
A|-3----3----3----3----5----3----5----1---|
E|------1---------1----3----1----3--------|


PRE VERSE

e|-----------------------------------------------------------|
B|------------------------------------------b4-b4-b4-4-------|
G|-------------------3---------------------------------------|
D|-------------------3—-3------------------------------------|
A|-3-1-3-----3-------1—-3----3-1-3-----3---------------------|
E|---------3---1--------1------------3---1-------------------|


VERSE | 2X

e|-----6-6-6-6--------------------|
B|-----6-6-6-6--------------------|
G|-----7-7-7-7-----5-7-8-5-7/-----|
D|--------------------------------|
A|--------------------------------|
E|--------------------------------|

Fist time through, play first verse softly. Second time through play it louder.

CHORUS

e|----------------------------------------|
B|----------------------------------------|
G|-5---------5------------------------3---|
D|-5----3----5----3----5----3----5----3---|
A|-3----3----3----3----5----3----5----1---|
E|------1---------1----3----1----3--------|


BRIDGE

e|-------------------------------------------------|
B|-----------------3----6-----------3----6----8----|
G|-----------------2----5----5------2----5----7----|
D|-----------------0----3----5------0----2----5----|
A|-3-1-3-------3-------------3---------------------|
E|-----------3-------------------------------------|


VERSE | 2X

e|--------------------------------------|
B|----------------------------4-4/6-6---|
G|-------------------3--------3-3/5-5---|
D|-------------------3—-3-----1-1/3-3---|
A|-3-1-3-----3-------1—-3---------------|
E|---------3---1--------1—--------------|
 |-----------3X-------------------------|


CHORUS

e|------------------------------------------|
B|------------------------------------------|
G|-5---------5------------------------3-----|
D|-5----3----5----3----5----3----5----3-----|
A|-3----3----3----3----5----3----5----1-----|
E|------1---------1----3----1----3----------|
  |-------3X--------| |---2X----------------|


OUTRO

e|--------------------------------------|
B|----------------------------4-4/6-6---|
G|-------------------3--------3-3/5-5---|
D|-------------------3—-3-----1-1/3-3---|
A|-3-1-3-----3-------1—-3---------------|
E|---------3---1--------1—--------------|
 |-----------3X-------------------------|
Tap to rate this tab
# A B C D E F G H I J K L M N O P Q R S T U V W X Y Z