Song name
# A B C D E F G H I J K L M N O P Q R S T U V W X Y Z

Sonicflood - Open The Eyes Of My Heart tab

              this is my 1st tab please rate my work
      e-------------------------------------------------------------------|
      b--------15----17-14-12-14-9-9-10-12-9-9-7-7-5----15----17-14-12-14-|
      g-------------------------------------------------------------------|
      d-------------------------------------------------------------------|
      a-------------------------------------------------------------------|
      e-------------------------------------------------------------------|

      e-------------------------------------------------------------------|
      b-9-9-10-12-17---------4-4-4--5-------------------------------------|
      g----------------------4-4-4--5-------------------------------------|
      d----------------------2-2-2--3-------------------------------------|
      a-------------------------------------------------------------------|
      e-------------------------------------------------------------------|
Tap to rate this tab
 
# A B C D E F G H I J K L M N O P Q R S T U V W X Y Z