Song name
# A B C D E F G H I J K L M N O P Q R S T U V W X Y Z

Sonicflood - Lord I Lift Your Name On High tab

this tab is 4 the christian song lovers.. sana magustuhan nio... lord i lift ur name on 
high... by arvin jay odiongan.. add nio ako s fb jhayzky_07@yahoo.com
 I LOVE YOU ANNABELLE!!!!!!!!!!!

 VERSE CHORDS
   Lord i lift your namne on high...
    G    C    D       C   D     G
e|--3-3--0-0--2-2-----3-2----------|
B|--3-3--1-1--3-3---------3-1-0----|
G|--0-0--0-0--2-2---------------2--|
D|--0-0--2-2--0-0------------------|
A|--2-2--3-3-----------------------|
E|--3-3--0-0-----------------------|
    Lord i love to sing your praises...
    G    C    D       C   D     G
e|--3-3--0-0--2-2---------------3---|
B|--3-3--1-1--3-3---------2-4-5-3---|
G|--0-0--0-0--2-2-----2-4-------0---|
D|--0-0--2-2--0-0---------------0---|
A|--2-2--3-3--------------------2---|
E|--3-3--0-0--------------------3---|

paulit ulit lng yan sa verse ganun din sa chorus...
maiiba lang sa...

... grave to the sky
    Bm           Em
e|--2------------0----------------|
B|--3------------0----------------|
G|--4------------0----------------|
D|--4------------2----------------|
A|--2------------2----------------|
E|---------------0----------------|

  Lord i lift your namne on high...
    G    C    D       C   D     G
e|--3-3--0-0--2-2-----3-2----------|
B|--3-3--1-1--3-3---------3-1-0----|
G|--0-0--0-0--2-2---------------2--|
D|--0-0--2-2--0-0------------------|
A|--2-2--3-3-----------------------|
E|--3-3--0-0-----------------------|


yan tapos na... sa na magustuhan nio po...
GODBLESS!!!!!!!!! HULO BIBLE CHRISTIAN CHURCH
Tap to rate this tab
 
# A B C D E F G H I J K L M N O P Q R S T U V W X Y Z