Song name
# A B C D E F G H I J K L M N O P Q R S T U V W X Y Z

Sonicflood - Trading My Sorrows tab

Title: Trading My Sorrows(Yes Lord)
Album: Hope
Band: Sonicflood
Tabbed by: Mark :Larry S. Saquing
Title: Trading My Sorrows
Intro:
A       D            F#m      E
002200  000232 x443xx 022100
Guitar2:
      A2   D   F#m E    A2  D   F#m E
e|----------------------------------|
B|----------------------------------|
G|----------------------------------|
D|-6-6-5---7-7-6--------7-6------9--|
A|---------------------6-6-----6-6--|
E|----------------------------------|
Guitar1
    A(one Strum only)  D   F#m E                 A (one Strum only)  D   F#m E
e|------------------------------------|
B|------------------------------------|
G|------------------------------------|
D|-6-6-5---7-7-6----------9-7------9--|
A|---------------------6-6-----6-6----|
E|------------------------------------|
 
Tap to rate this tab
# A B C D E F G H I J K L M N O P Q R S T U V W X Y Z