Guitaretab - guitar tabs
Song name
# A B C D E F G H I J K L M N O P Q R S T U V W X Y Z

Sonicflood - Resonate tab

Resonate (guitarra 
 
Main riff: 
G F# F F/E 
 
e----------------|--------------| 
B----------------|--------------| 
G----------------|--------------| 4x 
D---5--5---5-4-3-|--3-3--3-3--3-| 
A---5--5---5-4-3-|--3-3--3-3--3-| 
E---3--3---3-2-1-|--0-1--0-1--0-| 
 
Verse: 
G F# F F/E 
G F# F F/E 
G F# F 
F/E Eno3(play E riff)  
 
E riff: 
e-------------------| 
B-------------------| 
G-------------------| 
D------5--4--2------| 
A--2-----------5--3-| 
E--0----------------| 
 
G F# F F/E 
G F# F F/E 
G F# F F/E  
E (Play E riff) 
 
Bridge: 
Am C  
Am C 
Am C 
Ano3  
D  
 
Chorus: 
G 
G F# F F/E  
G F# F F/E
[ Tab from: http://www.guitaretab.com/s/sonicflood/61419.html ]
Related for Resonate tab
Resonate chords by Sonicflood