Song name
# A B C D E F G H I J K L M N O P Q R S T U V W X Y Z

Sonicflood - Open The Eyes To My Heart tab

Tuning: standard

intro/verse

e|--------------------------------------------------------------------------------|
B|--------------------------------------------------------------------------------|
G|-1------------------4---------------2-------------------------------------------|
D|-2------------------4---------------2-------------------------------------------|
A|-2------------------2-----------------------------------------------------------|
E|--------------------------------------------------------------------------------|

chorus x2:

e|-----------------------------------------------------------------------------|
B|-----------------------------------------------------------------------------|
G|---4------6--------2--------1------------------------------------------------|
D|---4------6--------2--------2------------------------------------------------|
A|---2------4-----------------2------------------------------------------------|
E|-----------------------------------------------------------------------------|

just repeat that for the whole song and yeah enjoy! just remember this is literally my first tab!!!!!!

ohh by the way i am not sure about the artist i just guessed but it is a version of the 
that i downloaded soo yah it should be right for the song i have!
Tap to rate this tab
# A B C D E F G H I J K L M N O P Q R S T U V W X Y Z