Song name
# A B C D E F G H I J K L M N O P Q R S T U V W X Y Z

Sonicflood - Holy One tab

Intro:
e---------------------------------------------------------|
B---------------------------------------------------------|
G---4-4---5-4-4---5-4-4---5/7--7-------2-2---3-2-3-/5-----|
D---5-5---5-5-5---5-5-5---5/7--7-------3-3---3-3-3-/5-----|
A---------------------------------------------------------|
E---------------------------------------------------------|
    G                       D          F            C

e---------------------------------------------------------|
B---------------------------------------------------------|
G------2--2------5-5----------------------2-2-2--0-0-0----|
D------2--2------5-5-----5--5-5-----------3-3-3--2-2-2----|
A---0----------3---------5--5-5-----------3-3-3--3-3-3----|
E------------------------3--3-3---------------------------|
    Am         C         G               (F)    (C)
Tap to rate this tab
# A B C D E F G H I J K L M N O P Q R S T U V W X Y Z