Song name
# A B C D E F G H I J K L M N O P Q R S T U V W X Y Z

Sonics Rendezvous Band - City Slang tab

Verse

guitar
e|---------------------------------|
B|---------------------------------|
G|-----------8~~-----6~------------|
D|8~-4~~-----8~~-----4~---65-------|
A|8~-4~~---4-6~~---46-----4368~~---|
E|6~-2~~--6-------6---------46~~---|

Throw in some of the runs from the bass-line occasionally 

bass
G|---------------------------------|
D|(*)----------------4-4-----------|
A|-4-------4-6-----46----343-------|
E|6--2--246------46---------46--464|

*dont play on first go through

Chorus

e|----------------|
B|----------------|
G|----------------|   x3
D|----------------|
A|8864-446-668-888|
E|6642-224-446-666|

e|-------------------------------|
B|-------------------------------|
G|-------------------------------|
D|---------------8888888888888-6-|
A|8864-44666666666666666666666-4-|
E|6642-2244444444----------------|

Section 3

e|---------------------------------------|
B|------(**************)-----------------|
G|-------11111111111111886666666688888888|
D|68-8-8-88888888888888664444444466666666|
A|xx-x-x---------------------------------|
E|46-6-6---------------------------------|
        {palm mute & throw in some       
               doubletime on the changes }

*these 1s are meant to be 10s obviously, dont really know how to tab stuff

Breakdown

e|---------------------------------|
B|---------------------------------|
G|---------------------------------|
D|---6~~~----8~~~----6~~~-8-6------|
A|8--4~~~68--6~~~68--4~~~-6-4--8~~~|
E|6------46------46------------6~~~|


I think the clean guitar bit after the solo is just hitting the same chords 
without their root notes.

Verse         0:00 - 0:46
Chorus        0:46 - 1:00
Verse         1:00 - 1:34
Chorus        1:34 - 1:48
Section C     1:48 - 2:31
Breakdown     2:31 - 2:37
Chorus & Solo 2:37 - 3:01
Verse         3:01 - 3:40
Chorus        3:40 - 3:54
Section C     3:54 - 5:15 (to fadeout)       
                 
http://sonicsrendezvousband.net/
Tap to rate this tab
 
# A B C D E F G H I J K L M N O P Q R S T U V W X Y Z