Song name
# A B C D E F G H I J K L M N O P Q R S T U V W X Y Z

Sonics - Psycho tab

Verse
G-----------------------------|
D--------3--3-3-5--5-5-3--3-3-|
A-3--3-3----------------------|
E-----------------------------|

Chorus
G-----------------------------------|----------------|
D-5-5-5-5-5-5-5-5-3-3-3-3-3-3-3-3---|-Drum-Breakdown-|
A---------------------------------3-|----------------|
E-----------------------------------|----------------|

Last Verse
G-----------------------------|
D--------4--4-4-6--6-6-4--4-4-|
A-4--4-4----------------------|
E-----------------------------|

****************************************************************************
Just listen for order, it's super easy to follow
Tap to rate this tab
 
# A B C D E F G H I J K L M N O P Q R S T U V W X Y Z