Song name
# A B C D E F G H I J K L M N O P Q R S T U V W X Y Z

Sonics - Money tab

INTRO:
e-------------x2--------------- ------------------------------|
b------------------------------ ------------------------------|
g------------------------------ ---------7------------7-7-----|
d---------7------------7-7----- -----6-8-8--6---6---6-8-8-6---|
a-----6-8-8--6---6---6-8-8-6--- -8-8----------8---8---------8-|
e-8-8----------8---8---------8- ------------------------------|

e------------------------------------------------------------|
b------------------------------------------------------------|
g----------------------------------------12-12--------11-11--|
d---------7------------7-7----------------9--9---------7--7--|
a-----6-8-8--6---6---6-8-8-6----10-10-10-10-10--8-8-8--8--8--|
e-8-8----------8---8---------8-------------------------------|

e-----------------------------|
b-----------------------------|
g------------------------9--9-|
d-----------------------10-10-|
a-----6-8-8-8-6---------10-10-|
e-8-8-----------8-8-8-8--8--8-|


VERSE:
e---------------------------------------------------|
b---------------------------------------------------|
g---------------------------7------------7-7--------|
d-8--------8------------6-8-8--6---6---6-8-8-6------|
a-8--------8--------8-8----------8---8---------8----|
e-6------7-6----------------------------------------|

e------------------------------------------------------------|
b------------------------------------------------------------|
g----------------------------------------12-12--------11-11--|
d---------7------------7-7----------------9--9---------7--7--|
a-----6-8-8--6---6---6-8-8-6----10-10-10-10-10--8-8-8--8--8--|
e-8-8----------8---8---------8-------------------------------|

e-----------------------------|
b-----------------------------|
g------------------------9--9-|
d-----------------------10-10-|
a-----6-8-8-8-6---------10-10-|
e-8-8-----------8-8-8-8--8--8-|

During the solo play the intro.
Tap to rate this tab
# A B C D E F G H I J K L M N O P Q R S T U V W X Y Z