Song name
# A B C D E F G H I J K L M N O P Q R S T U V W X Y Z

Sonics - Louie Louie tab

The mainriff is: 
Bb  Db   Eb   Db

Listen to the song to get the rhytm.
The chords are the same through the whole song just with some rhytm changes
in the verse.

Louie Louie, me gotta go now
Louie Louie, me gotta go now

A fine little girl, she wait for me.
Me catch the ship across the sea.
Then sailed me ship all alone.
Never think I'll make it home.

Louie Louie, me gotta go now.
Louie Louie, me gotta go now.

Three nights and days I sailed the sea.
Me think of girl constantly.
And on the ship, I dream she' there.
I smell the rose in her hair.

Louie Louie, me gotta go now
Louie Louie, me gotta go now

-GUITAR SOLO-
-guitar break-

Louie Louie, me gotta go now
Louie Louie, me gotta go now

Me see Jamaican moon above.
It won't be long me see me love.
Me take her in my arms again
I tell that I dream her there.

Louie Louie, me gotta go 

Guitarsolo:
E-6------------------------------6-----------------------------------------|
B------------------------------6---/11-11-11-11-11-11-9-11-11-9-11-11-9-11-|
G---8b--8b-8br-p6---------6-8b---------------------------------------------|
D-----------------8-8---8--------------------------------------------------|
A--------------------------------------------------------------------------|
E--------------------------------------------------------------------------|

E-9-11br-11br--------------|
B-------------11-9-11-11---|
G--------------------------|
D--------------------------|
A--------------------------|
E--------------------------|

To the rest of the solo, just repeat that last lick with some variations.


Tap to rate this tab
 
# A B C D E F G H I J K L M N O P Q R S T U V W X Y Z