Sonics - Its Alright tab

Intro                            x2
E----------------------------------|
B----------------------------------|
G------------------8-8-8-8-8-8-8-8-|
D-8-8-8-8-10101010-8-8-8-8-8-8-8-8-|
A-8-8-8-8-10101010-6-6-6-6-6-6-6-6-|
E-6-6-6-6-8-8-8-8------------------|

Verse            x8
E------------------|
B------------------|
G---------8-8-1010-|
D-8-8-8-8-8-8-1010-|
A-8-8-8-8-6-6-8-8--|
E-6-6-6-6----------|

Chorus                           x2
E----------------------------------|
B----------------------------------|
G------------------8-8-8-8-8-8-8-8-|
D-8-8-8-8-10101010-8-8-8-8-8-8-8-8-|
A-8-8-8-8-10101010-6-6-6-6-6-6-6-6-|
E-6-6-6-6-8-8-8-8------------------|

Solo (part of it anyway i can't figure it out for the life of me if someone
wants to tab it out i'll add it in if you're lazy like me just play the verse part here)
E--------------------------------------------------------|
B--------------------------------------------------------|
G--------------------------------------------------------|
D-----------------------------------8-11--13b13b13b11b8--|
A-8-11---8--11-8-11-8-11-8-11--8-11----------------------|
E--------------------------------------------------------|

Chorus                           x2 
E----------------------------------|
B----------------------------------|
G------------------8-8-8-8-8-8-8-8-|
D-8-8-8-8-10101010-8-8-8-8-8-8-8-8-|
A-8-8-8-8-10101010-6-6-6-6-6-6-6-6-|
E-6-6-6-6-8-8-8-8------------------|

Verse            x8
E------------------|
B------------------|
G---------8-8-1010-|
D-8-8-8-8-8-8-1010-|
A-8-8-8-8-6-6-8-8--|
E-6-6-6-6----------|

Chorus                           x4
E----------------------------------|
B----------------------------------|
G------------------8-8-8-8-8-8-8-8-|
D-8-8-8-8-10101010-8-8-8-8-8-8-8-8-|
A-8-8-8-8-10101010-6-6-6-6-6-6-6-6-|
E-6-6-6-6-8-8-8-8------------------|
Tap to rate this tab
 
# A B C D E F G H I J K L M N O P Q R S T U V W X Y Z