Song name
# A B C D E F G H I J K L M N O P Q R S T U V W X Y Z

Sonics - The Witch tab

Sonics-The Witch

Main Riff
E-----x2-----  ----x1------  ----x1------  ----x1------  ------x1----------|
B------------  ------------  ------------  ------------  ------------------|
G------------  -5-5-6-6-5--  ------------  -7-7-8-8-7--  ------------3-3-3-|
D-5-5-6-6-5--  -5-5-6-6-5--  -5-5-6-6-5--  -7-7-8-8-7--  --5-5-6-6-5-3-3-3-|
A-5-5-6-6-5--  -3-3-4-4-3--  -5-5-6-6-5--  -5-5-6-6-5--  --5-5-6-6-5-1-1-1-|
E-3-3-4-4-3--  ------------  -3-3-4-4-3--  ------------  --3-3-4-4-3-------|


"she walks around..." part:Something like this, listen for note change
E-------------|
B-------------|
G-5---2---7---|
D-5---2---7---|
A-3---0---5---|
E-------------|
Tap to rate this tab
 
# A B C D E F G H I J K L M N O P Q R S T U V W X Y Z