Song name
# A B C D E F G H I J K L M N O P Q R S T U V W X Y Z

Sonics - The Hustler tab

INTRO:
e-------------|
b-------------|
g-------------|
d-------------|
a-3-3-----1---|
e-----1h3---3-|

VERSE:
d----x4-------  ------x2-----  -----x2------|
a-------------  -------------  -------------|
f-------------  -------------  -------------|
c-------------  -3-3-----1---  -------------|
g-3-3-----1---  -----1h3---3-  -3-3-----1---|
d-----1h3---3-  -------------  -----1h3---3-|

d-------------------------  -----x2------|
a-------------------------  -------------|
f-------------------------  -------------|
c-5-5-----3---5-5-----1---  -------------|
g-----3h5---5-----1h3---3-  -3-3-----1---|
d-------------------------  -----1h3---3-|

CHORUS:
d-----------------------------------------------------------------|
a-----------------------------------------------------------------|
f-----------------5-5-5-5-5-5-5-5-----------------7-7-7-7-7-7-7-7-|
c-3-3-3-3-3-3-3-3-5-5-5-5-5-5-5-5-3-3-3-3-3-3-3-3-7-7-7-7-7-7-7-7-|
g-3-3-3-3-3-3-3-3-3-3-3-3-3-3-3-3-3-3-3-3-3-3-3-3-5-5-5-5-5-5-5-5-|
d-1-1-1-1-1-1-1-1-----------------1-1-1-1-1-1-1-1-----------------|
Tap to rate this tab
# A B C D E F G H I J K L M N O P Q R S T U V W X Y Z