Song name
# A B C D E F G H I J K L M N O P Q R S T U V W X Y Z

Sonny Rhodes - Ballad Of Serenity Fire Fly Theme tab

Highlighted       Show chord diagrams
-----------------------------------------------------------
Title 		: 	Ballad of Serenity (Fire Fly theme)
Written by 	:	Joss Whedon
Recorded by 	:	Sonny Rhodes
Tabbed by	:	Ben Dinsdale 
Contact		:	b.f.dinsdale@eng.hull.ac.uk
-----------------------------------------------------------
Notes		:	Capo 3rd fret 
		:	standard tuning
-----------------------------------------------------------
-- chords used (relative to capo):       		 --
-----------------------------------------------------------

    A    G    D    E    C
e|--0----3----2---------0--
b|--2----3----3----0----1--
g|--2----0----2----1----0--
D|--2----0----0----2----2--
A|--0----2---------2----3--
E|-------3---------0----0--

-----------------------------------------------------------
-- Riffs:						 --
-----------------------------------------------------------

Intro: 

e|--------------------------------
b|-----------------------------2--
g|-----------------------------2--
D|-----------------------------2--
A|---------0----3-p-0-------0-----
E|--0-h-3--------------3----------

Instrumental:

e|----------------0---
b|----------------1---
g|----------------0---
D|----------------2---
A|---------0-h-2--3---
E|--0-h-3-------------

    C  G   NB. these chord's are finger picked.
e|--0--3--
b|--1--3--
g|--0--0--
D|--2--0--
A|--3--2--
E|--0--3--

Outro:

    C    A
e|--0----0--
b|--1----2--
g|--0----2--
D|--2----2--
A|--3----0--
E|--0-------

-----------------------------------------------------------
-- Ballad of Serenity (Fire fly theme) 			 --
-----------------------------------------------------------

------------------
-- Intro:       --
------------------
Verse 1:

A             G
Take my love, take my land
D               A      E 
Take me where I cannot stand
C             G
I don't care, I'm still free
D                  A        E
You can't take the sky from me

verse 2:

A           G
Take me out to the black
D                 A      E
Tell them I ain't coming back
C             G
Burn the land and boil the sea
D                  A        E
You can't take the sky from me

------------------
-- Instrumental:--
------------------

Verse 3:

A          G
There's no place I can be
D             A     E
Since I found Serenity
C                      D
But you can't take the sky from me

------------------
-- Outro:       --
------------------
-----------------------------------------------------------
Links:

http://www.sonnyrhodes.com -- Sonny Rhodes official website
www.fireflyfans.net
-----------------------------------------------------------
Tap to rate this tab
# A B C D E F G H I J K L M N O P Q R S T U V W X Y Z