Song name
# A B C D E F G H I J K L M N O P Q R S T U V W X Y Z

Sonny Rollins - Oleo tab

-------------------------------------------------------------------------------
			     SONG NAME - Band Name
-------------------------------------------------------------------------------
Tabbed by:
Email:

Tuning:

e|---------------------------------------------------------------------------------|
B|---------------------2s3-------4p3----------3-4-3--------------------------------|
G|---3----5------3---------------------3------------5p3---------3-----5------------|
D|-----(5)----------(5)------------------(5)---------------5-6-7------5------------|
A|---------------------------------------------------------------------------------|
E|---------------------------------------------------------------------------------|

e|-----------------------------------------------------------------------------------|
B|----------------------4-3---------------------3--------3p1-------------------------|
G|--3----3-------3----------3--5----------3------------------2-----------------------|
D|-----5------------5------------------5-----5--------3---------3--------------------|
A|-----------------------------------------------------------------------------------|
E|-----------------------------------------------------------------------------------|
Tap to rate this tab
 
# A B C D E F G H I J K L M N O P Q R S T U V W X Y Z