Song name
# A B C D E F G H I J K L M N O P Q R S T U V W X Y Z

Sonohra - Salvami tab

Salvami

Sonohra

Liberi da Sempre

Clean (Suono pulito)



e|-----9-------9--------9-------9--------9--------9---------|
B|---------10-----10-------10------10-------10--------10----|
G|----------------------------------------------------------|
D|----------------------------------------------------------|
A|----------------------------------------------------------|
E|----------------------------------------------------------|



e|-----4-------4--------4-------4--------4--------4---------|
B|---------5-------5--------5-------5-------5--------5------|
G|----------------------------------------------------------|
D|----------------------------------------------------------|
A|----------------------------------------------------------|
E|----------------------------------------------------------|



e|----9--------9------9h10p9-----9-------9-------9h10p9-----9------9------9------|
B|-------10------ 10----------------10------10-----------------10-----10-----10--|
G|-------------------------------------------------------------------------------|
D|-------------------------------------------------------------------------------|
A|-------------------------------------------------------------------------------|
E|-------------------------------------------------------------------------------|



e|----7--------7--------7----------|
B|-------10-------10-------10------|
G|---------------------------------|
D|---------------------------------|
A|---------------------------------|
E|---------------------------------|




e|----9--------9------9h10p9-----9-------9-------9h10p9-----9------9------9------|
B|-------10------ 10----------------10------10-----------------10-----10-----10--|
G|-------------------------------------------------------------------------------|
D|-------------------------------------------------------------------------------|
A|-------------------------------------------------------------------------------|
E|-------------------------------------------------------------------------------|




e|----7--------7--------7----------|
B|-------10-------10-------10~~~---|   
G|---------------------------------|
D|---------------------------------|
A|---------------------------------|
E|---------------------------------|



 h = hammer on 
 p= pull off
 ~~~ = let ring
Tap to rate this tab
 
# A B C D E F G H I J K L M N O P Q R S T U V W X Y Z