Guitaretab - guitar tabs
Song name
# A B C D E F G H I J K L M N O P Q R S T U V W X Y Z

Sons And Daughters - Choked tab

-------------------------------------------------------------------------------
			     CHOKED - Sons & Daughters
-------------------------------------------------------------------------------
Tabbed by: Pyrrhic
Email:

Tuning: DADGBE

Verses (repeats continuously)

E|------------------------------------------------------|
B|------------------------------------------------------|
G|--------------------8---------------------------------|
D|-------------------------8---10--101010--810--------|
A|-------------10-------------------------------10------|
D|--810------------------------------------------------|

E|------------------------------------------------------------|
B|------------------------------------------------------------|
G|---------------8--------------------------------------------|
D|--------------------8---10--101010--810-------------------|
A|--------10--------------------------------------------------|
D|--10--------------------------------------------------------|
[ Tab from: http://www.guitaretab.com/s/sons-and-daughters/70916.html ]
Chorus (repeats)

You really need a slide for this to work. I haven't marked the tab as such because every 
in the chorus should be a smooth slide. Listen to the song to get the rhythm.

E|-------------------------------------|
B|-------------------------------------|
G|-------------------------------------|
D|17171717--171717-1717-151315--17-|
A|17171717--171717-1717-15-1315--17-|
D|17171717--171717-1717-151315--17-|

E|-------------------------------------|
B|-------------------------------------|
G|-------------------------------------|
D|17171717171717----21-----1717----|
A|17171717171717----21-----1717----|
D|17171717171717----21-----17-17----|

Outro (repeats)

E|----------------------------------------|
B|----------------------------------------|
G|----------------------------------------|
D|--------------------55------------------|
A|-------10108106------6--5------------|
D|10-------------------------------------|


That's it! Just play each part as many times as the song requires.
Related for Choked tab