Song name
# A B C D E F G H I J K L M N O P Q R S T U V W X Y Z

Sons Of Bill - Whispering tab

Whispering by Sons of Bill
From the Album Far Cry

Capo 3 (tablature relative to capo)

Intro (Sam's Electric)

e----------0-------0------0----------------0------------0--------0--0---|
B------------5---4---4---0----0---------------5------4----4---0----6----|
G-------6------6-----------6------------6-------6-----------------------|
D-----6------------------------------6----------------------------------|
A---4-----------------------------0-------------------------------------|
E-----------------------------------------------------------------------|


e-----------0-------------------0----------------------0---------------|
B-------------0------------------0-----------------------0-------------|
G-------6--------------------4-----------------------------------------|
D-----6--------------------4-----------------------7-------------------|
A---4------------4--------2----------2----------7----------------------|
E---------------------------------------------5------------------------|


e-----------0--------------|
B-------------0------------|
G--------------------------|
D-------5------------------|
A-----5--------------------|
E---3------------3---------|


Post Inro and Verse Chords


D-G-D-Cadd9
Bm-Asus-G

D                            G
Measured out the day in tablespoons of caffeine
D                                         Cadd9
Its Eight o clock in the mornin and I'm still too drunk to dream
D                               G
Read the Sunday paper leave my Bible up there on the shelf
D                                 Cadd9
I don't believe in angels but I still believe in hell

D                               G
City lights shine down on the streets of NYC
D                                   Cadd9
Reflecting off the cars and all the people that you see
D                                               G
There's no sound coming out of the speakers my radio's been stolen
Bm             Asus           Cadd9
The only sound I hear is the ringing in my ears


Chorus
Bm               Asus
e---------    e--------|
B---3-----    B---3----|
G---0-----    G---0----|
D---4-----    D---2----|
A---2-----    A---0----|
E---------    E--------|

Bm            Asus               G
There's no more time for me to stay here
Bm            Asus               G
Waste another minute I may spend another year
Bm            Asus               G
Thoughts erase those feelings in my head
Bm            Asus               G
Whispering you'll see the stars tonight

(back to D-G-D-Cadd9)


lick for verse

  D                            G
e-2-2--2--2h3--2—0-------------3---------------------------|
B-3----------------------------3--3--3--3--1--0------------|
G-2----------------------------0----------------2----------|
D-0----------------------------0---------------------------|
A------------------------------2---------------------------|
E------------------------------3---------------------------|
City lights shine down upon the streets of NYC
  D                                       Cadd9
e-2--2--2--2h3--2--0----------------------3----------------------|
B-3---------------------------------------3-3—3—3-2-0------------|
G-2---------------------------------------0-----------2----------|
D-0---------------------------------------2----------------------|
A-----------------------------------------3----------------------|
E----------------------------------------------------------------|
Reflecting off the cars and all the people that you see


D                 G
e-2-2--2--2h3--2—0-------------3----------------------------------|
B-3----------------------------3--3--3--3--1--0-------------------|
G-2----------------------------0----------------2-----------------|
D-0----------------------------0----------------------------------|
A------------------------------2----------------------------------|
E------------------------------3----------------------------------|
There’s no sound coming out of the speakers my radio’s been stolen



Bm             Asus             G
e---------------------------------------------2-----0------|   Chorus
B-------3--------------3----------------3-------3-----3----|
G-----0--0---0-------0---0--0-------------0-------0------0-|
D---4------4------2--------2----------0-----0--------------|
A-2-------------0-------------------2----------------------|
E---------------------------------3------------------------|
The only sound I hear,          Is ringing in my ears


Chorus modulates the 2nd time through

C#m          A
e--4----    e---5---|
B--5----    B---6---|
G--6----    G---7---|
D--6----    D---7---|
A--4----    A---5---|
E-------    E-------|

C#m                             A
There’s no more time for me to stay here
C#m                             A
Waste another minute I may spend another year
C#m                             A
Thoughts erase those feelings in my head
C#m                             A
Whispering you’ll see the stars tonight

 Break down

e------0------ -0-----0----0----0------|
B-----1--------0-----1----0----1-------|
G-----2--------0-----2----0----2-------|
D-----3--------3-----3----3----3-------|
A-----3--------3-----3----3----3-------|
E--------------------------------------|

Tabbed by Andrew Fickley

Yes, it did take me a year to fix it, but here it is. I'm pretty sure this is right on the money.
Tap to rate this tab
 
# A B C D E F G H I J K L M N O P Q R S T U V W X Y Z