Guitaretab - guitar tabs
Song name
# A B C D E F G H I J K L M N O P Q R S T U V W X Y Z

Sons Of Bill - Savannah Rain tab

Highlighted       Show chord diagrams
Intro (Standard tuning)
e---------------------------------------------------------------------------|
B---------------------------------------------------------------------------|
G---------------------------------------------------------------------------|
D---------------------------------------------------------------------------|
A---------------------------------------------------------------------------|
E-----0---2---4---2---0---4---5---7---5---4---4h5---5p4---2---4---0---------|


Capo 4

Intro (Samís part)

e-------------------------------------|
B---3----------1----------------------|   Repeat until the change to F, G,
G------0-----------0------------------|   it's just picking the chords in this
D----------2-----------2--------------|   pattern.
A-------------------------------------|
E----------------------------    (<---|this is for the C shape)

e----------------------------|
B----1---------0-------------|
G-------2----------0---------|   End intro on this, back to C
D-----------2----------0-----|
A----------------------------|
E----------------------------|

Intro Chords:
C-Am-G
[ Tab from: http://www.guitaretab.com/s/sons-of-bill/176399.html ]
C
Ií m lonesome there, out in the midnight air
F			       G		C
Driving around wonderin if Iíll make it through
C
These lonesome nights still prayin for daylight
F				G		     C
And wishin to hell that I could just come home to you

And my radioís on and every single song
Tells the same old lonesome story of you and me
And its ringin in my head those words that you said
I guess some things they are never meant to be

Am				       F		C-C/B-Am
Just smell the sweet soft southern smell of magnolia
F					    G
And hear the wind, itís calling out your name
Am			      F                    C-C/B-Am
And just another broken heart lost in Georgia
F		        G		        C
And falling like a sweet Savannah rain

Repeat intro part

And its hard to be a man and its hard to give a damn
And  I guess that there ainít nothing else left to say
Cause whats done cant be undone, and there aint nowhere to run
But it hurts too goddamn much to stay

Chorus

And these memories still remain of chasing headlights in the rain
And these shifting gears won't ease my worried mind
And there ain't nothin left to do but howl at the moon
And drive until I see that morning sunrise

Chorus


-Tabbed by Andrew Fickley
Related for Savannah Rain tab