Song name
# A B C D E F G H I J K L M N O P Q R S T U V W X Y Z

Sons Of Butcher - The Ultimate Drinking Song tab

THE ULTIMATE DRINKING SONG
D TUNING

OPENING
Some say that a drink is just a drink
------------------------|
------------------------|
-----7------------------|
---7------7---5---------|
-5------7-----5---------|
-------7-------5--------|
Some say that a drink will get the pink
---------------------------------|
---------------------------------|
-----7---------------------------|
---7---------7-----8-------------|
5---------7--------8-------------|
--------7-----------8------------|
I say just drink that fucking DRINK
------------------------|
------------------------|
-----7------------------|
---7--------7-----------|
-5-------7----7---------|
-------7----------------|

MAIN RIFF
---------------------------------------------------------------|
---------------------------------------------------------------|
---------------------------------------------------------------|
-12—7-7—10—5-7-5-3-3-3—12—10-10—12---0-0—0---------------------|
-12—7-7—10—5-7-5-3-3-3—12—10-10—12---0-0—0---------------------|
-12—7-7—10—5-7-5-3-3-3—12—10-10—12---0-0—0---------------------|

---------------------------------------------------------------|
---------------------------------------------------------------|
---------------------------------------------------------------|
-12—7-7—10—5-7-5-3-3-3—12—10-10—12---0-0—0---------------------|
-12—7-7—10—5-7-5-3-3-3—12—10-10—12---0-0—0---------------------|
-12—7-7—10—5-7-5-3-3-3—12—10-10—12---0-0—0---------------------|

CHORUS
Drinkin’ all the Drinks you gotta drink the drinks I say drink that shit, drink that shit
----------------------------------------------------------------------------------|
----------------------------------------------------------------------------------|
----------------------------------------------------------------------------------|
-12-12-12-12-10-10-10-10-9-9-9-9-7-7-7-7-5—5-5—5-5-5-7-5-7-0----------------------|
-12-12-12-12-10-10-10-10-9-9-9-9-7-7-7-7-5—5-5—5-5-5-7-5-7-0----------------------|
-12-12-12-12-10-10-10-10-9-9-9-9-7-7-7-7-5—5-5—5-5-5-7-5-7-0----------------------|

VERSE 1
You gotta excuse me, I’m drunk as shit
----------------------------------------------------------------------|
----------------------------------------------------------------------|
----------------10----------------------------------------------------|
-12-12-10--10-10--------------12—10—8—8-8-8-8-8-8-8-------------------|
-12-12-10—8--10---------5—12—10—8—8-8-8-8-8-8-8-----------------------|
-12-12-10-------10-0-5-7-----12—10—8---8-8-8-8-8-8-8------------------|

But I’ll keep drinkin’ till they gotta stop servin’ it
---------------------------------------------------------------------|
---------------------------------------------------------------------|
---------------10----------------------------------------------------|
-12-12-10--10-10--------------12—10—8—8-8-8-8-8-8-8------------------|
-12-12-10—8--10---------5—12—10—8—8-8-8-8-8-8-8----------------------|
-12-12-10-------10-0-5-7-----12—10—8---8-8-8-8-8-8-8-----------------|

This so called drunk fest, is killing me
---------------------------------------------------------------------|
---------------------------------------------------------------------|
---------------10----------------------------------------------------|
-12-12-10--10-10--------------12—10—8—8-8-8-8-8-8-8------------------|
-12-12-10—8--10---------5—12—10—8—8-8-8-8-8-8-8----------------------|
-12-12-10-------10-0-5-7-----12—10—8---8-8-8-8-8-8-8-----------------|

Ten buck pitchers, the death is free
----------------------------------------------------------------------|
----------------------------------------------------------------------|
----------------10----------------------------------------------------|
-12-12-10--10-10-------------12—10—8—8-8-8-8-8-8-8--------------------|
-12-12-10—8-10---------5—12—10—8—8-8-8-8-8-8-8------------------------|
-12-12-10------10-0-5-7-----12—10—8---8-8-8-8-8-8-8-------------------|

VERSE 2 LYRICS
I’ll out drink you and steal your chick
I’ll keep drinkin’ till they gotta pump my stomach


CHORUS


BRIDGE
Boiler makers, Any takers?
----------------------------------------------------------------------------------------|
----------------------------------------------------------------------------------------|
----------------------------------------------------------------------------------------|
-3-3-3-5-5-5-8-8-8-8-8-8-8-8-8-8-8-8-8-8-8-8-8—3-3-3-5-5-5-8-8-8-8-8-8-8-8-8-8-8-8-8-8--|
-3-3-3-5-5-5-8-8-8-8-8-8-8-8-8-8-8-8-8-8-8-8-8—3-3-3-5-5-5-8-8-8-8-8-8-8-8-8-8-8-8-8-8--|
-3-3-3-5-5-5-8-8-8-8-8-8-8-8-8-8-8-8-8-8-8-8-8—3-3-3-5-5-5-8-8-8-8-8-8-8-8-8-8-8-8-8-8--|

Break out the moonshine, whatever takes less time

----------------------------------------------------------------------------------------|
----------------------------------------------------------------------------------------|
----------------------------------------------------------------------------------------|
-3-3-3-5-5-5-8-8-8-8-8-8-8-8-8-8-8-8-8-8-8-8-8—3-3-3-5-5-5-8-8-8-8-8-8-8-8-8-8-8-8-8-8--|
-3-3-3-5-5-5-8-8-8-8-8-8-8-8-8-8-8-8-8-8-8-8-8—3-3-3-5-5-5-8-8-8-8-8-8-8-8-8-8-8-8-8-8--|
-3-3-3-5-5-5-8-8-8-8-8-8-8-8-8-8-8-8-8-8-8-8-8—3-3-3-5-5-5-8-8-8-8-8-8-8-8-8-8-8-8-8-8--|


BRIDGE LEAD 1
--------------------------------------------------------------------------------------|
-15-13----15-13----15-13----15-13----15-13----15-13----15-13----15-13-----------------|
--------14----------14--------14--------14---------14--------14----------14-------14--|
--------------------------------------------------------------------------------------|
--------------------------------------------------------------------------------------|
--------------------------------------------------------------------------------------|

BRIDGE LEAD 2, JOINS IN OVER TOP OF BRIDGE LEAD 1 FOR SECOND HALF
------------------------------------------------------------------------------------------|
-18-15----18-15----18-15----18-15----18-15----18-15----18-15----18-15-----18-20-20-20-20--|
----------17--------17--------17---------17---------17--------17---------17--------17-----|
------------------------------------------------------------------------------------------|
------------------------------------------------------------------------------------------|
------------------------------------------------------------------------------------------|

[TOP]
Tap to rate this tab
 
# A B C D E F G H I J K L M N O P Q R S T U V W X Y Z