Song name
# A B C D E F G H I J K L M N O P Q R S T U V W X Y Z

Sons Of Butcher - Suite Bad Touch tab

SUITE: BAD TOUCH
STANDARD TUNING

OPENING
---------------------------------------------------------------------------|
---------------------------------------------------------------------------|
---------------------------------------------------------------------------|
---------------------------------------------------------------------------|
--------------------------------------------------------7------------------|
X-X-7-9-X—X-X--7-9-X-X-7-9-X-X-7-9-X-X----9—4-4-5-2-0—0-0-2-0-0-0-2-0-0-0--|


MAIN RIFF THROUGHOUT – USE A WAH PEDAL
--------------------------------------------------------|
--------------------------------------------------------|
--------------------------------------------------------|
--------------------------------------------------------|
------------7-------------------------------------------|
-7-9-X-X---9—4-4-5-2-0—0-0-2-0-0-0-2-0-0-0--------------|

There are touches that are good, and touches that are bad, touches that are happy and
that are sad, hugs and kisses make you wanna dance but they shouldn’t be anywhere near
pants. Your pants area is a private place, if a touch invades, punch it in the face, if 
touch makes nervous, scream and flee go tell an adult SOMEONE’S TOUCHIN’ ME!


ACOUSTIC CHANGE

I thought you just wanted a chick, but you got…

----------0----------0-------------0--------------------0----|
----------0----------0-------------5--------------------0----|
------6----------6--------------6-------------------1--------|
--------7----------7---------6------------------2------------|
-0-0--------0-0-------0-4-----------------2------------------|
-----------------------------------------0-0-----------------|

…bad touched, now you’re in a skin flick

----------0----------0-------------0--------------------0----|
----------0----------0-------------5--------------------0----|
------6----------6--------------6-------------------1--------|
--------7----------7---------6------------------2------------|
-0-0--------0-0-------0-4-----------------2------------------|
-----------------------------------------0-0-----------------|

It breaks my heart to see you here

----------0----------0-------------0--------------------0----|
----------0----------0-------------5--------------------0----|
------6----------6--------------6-------------------1--------|
--------7----------7---------6------------------2------------|
-0-0--------0-0-------0-4-----------------2------------------|
-----------------------------------------0-0-----------------|

I can offer you a hug and a sympathetic tear

----------0----------0-------------0--------------------0----|
----------0----------0-------------5--------------------0----|
------6----------6--------------6-------------------1--------|
--------7----------7---------6------------------2------------|
-0-0--------0-0-------0-4-----------------2------------------|
-----------------------------------------0-0-----------------|

It wasn’t your fault, whatever happened to you (happened to you)
---------------------------------------------------------------------|
--------------2—2-2-2-2-2-2-2---------------2-2-2-2-2-2-2-2----------|
--------------2—2-2-2-2-2-2-2---------------2-2-2-2-2-2-2-2----------|
-4-4--2-2--2—2-2-2-2-2-2-2-4-4-2-2-2-2-2-2-2-2-2-2-2-----------------|
-4-4--2-2--0—0-0-0-0-0-0-0-4-4-2-2-2-0-0-0-0-0-0-0-0-----------------|
-2-2--0-0--------------------------2-2-0-0-0-------------------------|


But now Sol is here and his friendship is true
----------------------------------------------------------------------|
--------------2—2-2-2-2-2-2-2---------------2-2-2-2-2-2-2-2-----------|
--------------2—2-2-2-2-2-2-2---------------2-2-2-2-2-2-2-2-----------|
-4-4--2-2--2—2-2-2-2-2-2-2-4-4-2-2-2-2-2-2-2-2-2-2-2------------------|
-4-4--2-2--0—0-0-0-0-0-0-0-4-4-2-2-2-0-0-0-0-0-0-0-0------------------|
-2-2--0-0---------------------------2-2-0-0-0-------------------------|

A touch made you nervous, maybe no one believed (maybe no one believed)
-0----------------------------------3-------------|
-1----------------------------------3-------------|
-2----------------------------------0-------------|
-2----------------------------------0-------------|
-0----------------------------------2-------------|
-------------------------------------3------------|

But you can tell ole Sol, someone bad touched me!

-0----------------------------------3-3-3-3-3-3-3-3-3-3-3-3-3-3-3-3------|
-1----------------------------------3-3-3-3-3-3-3-3-3-3-3-3-3-3-3-3------|
-2----------------------------------0-0-0-0-0-0-0-0-0-0-0-0-0-0-0-0------|
-2----------------------------------0-0-0-0-0-0-0-0-0-0-0-0-0-0-0-0------|
-0----------------------------------2-2-2-2-2-2-2-2-2-2-2-2-2-2-2-2------|
------------------------------------3-3-3-3-3-3-3-3-3-3-3-3-3-3-3-3------|

SOMEONE BAD TOUCHED ME!
----------------------------------------|
----------------------------------------|
-11-11—9-9------------------------------|
-11-11—9-9—7—7-7-7-7-7-7-7--------------|
--9—9---7-7—7—7-7-7-7-7-7-7-------------|
--------------------5---5-5-5-5-5-5-5---|

SOMEONE BAD TOUCHED ME!
----------------------------------------|
----------------------------------------|
-11-11—9-9------------------------------|
-11-11—9-9—7—7-7-7-7-7-7-7--------------|
--9—9---7-7—7—7-7-7-7-7-7-7-------------|
--------------------5---5-5-5-5-5-5-5---|

SOMEONE BAD TOUCHED ME!
----------------------------------------|
----------------------------------------|
-11-11—9-9------------------------------|
-11-11—9-9—7—7-7-7-7-7-7-7--------------|
--9—9---7-7—7—7-7-7-7-7-7-7-------------|
--------------------5---5-5-5-5-5-5-5---|

SOMEONE BAD TOUCHED MEEEEEEEEEEEAAAAAHHHHHHHHHH!
-------------------------------------------|
-------------------------------------------|
-11-11—9-9---------------------------------|
-11-11—9-9—7-------------------------------|
--9—9---7-7—7------------------------------|
-------------------5-----------------------|

[TOP]
Tap to rate this tab
# A B C D E F G H I J K L M N O P Q R S T U V W X Y Z