Song name
# A B C D E F G H I J K L M N O P Q R S T U V W X Y Z

Sons Of Butcher - Love By The River tab

Love By The River
Written by: The Sons of Butcher

|---2--------0------------3-----------------|
|---3--------1------------0-----------------|
|---2--------0------------0-----------------|
|---0--------2------------0-----------------| 3x
|------------3------------2-----------------|
|--------------------------3----------------|

Steeltown on a saturday night, a bucket of chicken and you
Two lovers in love we was lovin' alot, and the love was so lovably true

I laid down the blanket by the johnny on the spot, everything was feeling so right

|----2---------0----------3--------------------|
|----3---------1----------0--------------------|
|----2---------0----------0-0-0-0-0------------|
|----0---------2----------0-0-0-0-0------------|
|---------------3----------2-2-2-2-2-----------|
|--------------------------3-3-3-3-3-----------|

Your lips said 'no', but your eyes said "DO ME", so we're making sweet love tonight....

|------------------------------------------------------|
|------------------------------------------------------|
|---7--7--7-7-7-7--5-5---------------------------------|
|---7--7--7-7-7-7--5-5--5--5--5-5-5-5-5--5-5-----------|
|---5--5--5-5-5-5--3-3--5--5--5-5-5-5-5--5-5-----------|
|--------------------------3--3--3-3-3-3-3--3-3--------|

We made love by the riverrrrrrrrrrrr
Tap to rate this tab
 
# A B C D E F G H I J K L M N O P Q R S T U V W X Y Z